  0
SECTION
  2
HEADER
  9
$LIMMIN
 10
317.912323
 20
159.027985
  9
$LIMMAX
 10
529.200989
 20
249.027985
  9
$EXTMIN
 10
317.912323
 20
159.027985
  9
$EXTMAX
 10
529.200989
 20
249.027985
  0
ENDSEC
  0
SECTION
  2
TABLES
  0
TABLE
  2
LTYPE
 70
     3
  0
LTYPE
  2
CONTINUOUS
 70
    64
  3
Ausgezogene Linie
 72
    65
 73
     0
 40
0.0
  0
LTYPE
  2
DASHED
 70
    64
  3
__ __ __ __ __ __ __ __ __ __ __ __ __ __ __
 72
    65
 73
     2
 40
0.75
 49
0.5
 49
-0.25
  0
LTYPE
  2
DASHDOT
 70
    64
  3
__ . __ . __ . __ . __ . __ . __ . __ . __ . __
 72
    65
 73
     4
 40
1.0
 49
0.5
 49
-0.25
 49
0.0
 49
-0.25
  0
ENDTAB
  0
TABLE
  2
LAYER
 70
     4
  0
LAYER
  2
LC-003-002-----0
 70
    64
 62
     7
  6
CONTINUOUS
  0
LAYER
  2
LC-004-006-----0
 70
    64
 62
     7
  6
CONTINUOUS
  0
LAYER
  2
LC-006-012-----0
 70
    64
 62
     7
  6
CONTINUOUS
  0
LAYER
  2
LC-007-004-----0
 70
    64
 62
     7
  6
CONTINUOUS
  0
ENDTAB
  0
TABLE
  2
STYLE
 70
     1
  0
STYLE
  2
TXT8
 70
    64
 40
0.0
 41
1.0
 50
0.0
 71
     0
 42
3.500000
  3
TXT8
  4

  0
ENDTAB
  0
ENDSEC
  0
SECTION
  2
BLOCKS
  0
ENDSEC
  0
SECTION
  2
ENTITIES
  0
LINE
  8
LC-004-006-----0
 62
     2
  6
DASHDOT
 10
317.912323
 20
204.027985
 11
529.200989
 21
204.027985
  0
LINE
  8
LC-003-002-----0
 62
     1
  6
CONTINUOUS
 10
363.309204
 20
249.027985
 11
373.159210
 21
249.027985
  0
LINE
  8
LC-003-002-----0
 62
     1
  6
CONTINUOUS
 10
363.309204
 20
159.027985
 11
373.159210
 21
159.027985
  0
LINE
  8
LC-003-002-----0
 62
     1
  6
CONTINUOUS
 10
361.309204
 20
247.027985
 11
361.309204
 21
161.027985
  0
LINE
  8
LC-003-002-----0
 62
     1
  6
CONTINUOUS
 10
486.309204
 20
247.027985
 11
486.309204
 21
161.027985
  0
LINE
  8
LC-003-002-----0
 62
     1
  6
CONTINUOUS
 10
327.929291
 20
234.027985
 11
361.309204
 21
234.027985
  0
LINE
  8
LC-003-002-----0
 62
     1
  6
CONTINUOUS
 10
325.891907
 20
174.027985
 11
361.309204
 21
174.027985
  0
LINE
  8
LC-007-004-----0
 62
     2
  6
CONTINUOUS
 10
325.891907
 20
174.027985
 11
328.497192
 21
182.575027
  0
LINE
  8
LC-007-004-----0
 62
     2
  6
CONTINUOUS
 10
328.497192
 20
182.575027
 11
325.307861
 21
198.558594
  0
LINE
  8
LC-007-004-----0
 62
     2
  6
CONTINUOUS
 10
325.307861
 20
198.558594
 11
330.700439
 21
218.990936
  0
LINE
  8
LC-007-004-----0
 62
     2
  6
CONTINUOUS
 10
330.700439
 20
218.990936
 11
327.929291
 21
234.027985
  0
LINE
  8
LC-007-004-----0
 62
     2
  6
CONTINUOUS
 10
522.608032
 20
174.027985
 11
521.004211
 21
182.870789
  0
LINE
  8
LC-007-004-----0
 62
     2
  6
CONTINUOUS
 10
521.004211
 20
182.870789
 11
524.409241
 21
198.410706
  0
LINE
  8
LC-007-004-----0
 62
     2
  6
CONTINUOUS
 10
524.409241
 20
198.410706
 11
519.016663
 21
217.949600
  0
LINE
  8
LC-007-004-----0
 62
     2
  6
CONTINUOUS
 10
519.016663
 20
217.949600
 11
522.384338
 21
234.027985
  0
LINE
  8
LC-006-012-----0
 62
     2
  6
DASHED
 10
361.309204
 20
234.027985
 11
486.309204
 21
234.027985
  0
LINE
  8
LC-003-002-----0
 62
     1
  6
CONTINUOUS
 10
486.309204
 20
234.027985
 11
522.384338
 21
234.027985
  0
LINE
  8
LC-006-012-----0
 62
     2
  6
DASHED
 10
361.309204
 20
174.027985
 11
486.309204
 21
174.027985
  0
LINE
  8
LC-003-002-----0
 62
     1
  6
CONTINUOUS
 10
486.309204
 20
174.027985
 11
522.608032
 21
174.027985
  0
LINE
  8
LC-003-002-----0
 62
     1
  6
CONTINUOUS
 10
471.309204
 20
204.027985
 11
471.309204
 21
249.027985
  0
LINE
  8
LC-003-002-----0
 62
     1
  6
CONTINUOUS
 10
471.309204
 20
159.027985
 11
471.309204
 21
204.027985
  0
LINE
  8
LC-003-002-----0
 62
     1
  6
CONTINUOUS
 10
376.309204
 20
204.027985
 11
376.309204
 21
249.027985
  0
LINE
  8
LC-003-002-----0
 62
     1
  6
CONTINUOUS
 10
376.309204
 20
159.027985
 11
376.309204
 21
204.027985
  0
LINE
  8
LC-003-002-----0
 62
     1
  6
CONTINUOUS
 10
474.459198
 20
204.027985
 11
474.459198
 21
249.027985
  0
LINE
  8
LC-003-002-----0
 62
     1
  6
CONTINUOUS
 10
474.459198
 20
159.027985
 11
474.459198
 21
204.027985
  0
LINE
  8
LC-003-002-----0
 62
     1
  6
CONTINUOUS
 10
373.159210
 20
204.027985
 11
373.159210
 21
249.027985
  0
LINE
  8
LC-003-002-----0
 62
     1
  6
CONTINUOUS
 10
373.159210
 20
159.027985
 11
373.159210
 21
204.027985
  0
LINE
  8
LC-003-002-----0
 62
     1
  6
CONTINUOUS
 10
376.309204
 20
159.027985
 11
471.309204
 21
159.027985
  0
LINE
  8
LC-003-002-----0
 62
     1
  6
CONTINUOUS
 10
474.459198
 20
159.027985
 11
484.309204
 21
159.027985
  0
LINE
  8
LC-003-002-----0
 62
     1
  6
CONTINUOUS
 10
474.459198
 20
249.027985
 11
484.309204
 21
249.027985
  0
LINE
  8
LC-003-002-----0
 62
     1
  6
CONTINUOUS
 10
376.309204
 20
249.027985
 11
471.309204
 21
249.027985
  0
LINE
  8
LC-003-002-----0
 62
     1
  6
CONTINUOUS
 10
373.159210
 20
247.277985
 11
376.309204
 21
247.277985
  0
LINE
  8
LC-003-002-----0
 62
     1
  6
CONTINUOUS
 10
471.309204
 20
247.277985
 11
474.459198
 21
247.277985
  0
LINE
  8
LC-003-002-----0
 62
     1
  6
CONTINUOUS
 10
471.309204
 20
160.777985
 11
474.459198
 21
160.777985
  0
LINE
  8
LC-003-002-----0
 62
     1
  6
CONTINUOUS
 10
373.159210
 20
160.777985
 11
376.309204
 21
160.777985
  0
ARC
  8
LC-003-002-----0
 62
     1
  6
CONTINUOUS
 10
363.309204
 20
247.027985
 40
2.000000
 50
90.000003
 51
180.000009
  0
ARC
  8
LC-003-002-----0
 62
     1
  6
CONTINUOUS
 10
363.309204
 20
161.027985
 40
2.000000
 50
180.000009
 51
269.999997
  0
ARC
  8
LC-003-002-----0
 62
     1
  6
CONTINUOUS
 10
484.309204
 20
161.027985
 40
2.000000
 50
269.999997
 51
0.000000
  0
ARC
  8
LC-003-002-----0
 62
     1
  6
CONTINUOUS
 10
484.309204
 20
247.027985
 40
2.000000
 50
0.000000
 51
90.000003
  0
ENDSEC
  0
EOF
