  0
SECTION
  2
HEADER
  9
$LIMMIN
 10
313.408325
 20
-30.052164
  9
$LIMMAX
 10
566.309937
 20
89.947838
  9
$EXTMIN
 10
313.408325
 20
-30.052164
  9
$EXTMAX
 10
566.309937
 20
89.947838
  0
ENDSEC
  0
SECTION
  2
TABLES
  0
TABLE
  2
LTYPE
 70
     3
  0
LTYPE
  2
CONTINUOUS
 70
    64
  3
Ausgezogene Linie
 72
    65
 73
     0
 40
0.0
  0
LTYPE
  2
DASHED
 70
    64
  3
__ __ __ __ __ __ __ __ __ __ __ __ __ __ __
 72
    65
 73
     2
 40
0.75
 49
0.5
 49
-0.25
  0
LTYPE
  2
DASHDOT
 70
    64
  3
__ . __ . __ . __ . __ . __ . __ . __ . __ . __
 72
    65
 73
     4
 40
1.0
 49
0.5
 49
-0.25
 49
0.0
 49
-0.25
  0
ENDTAB
  0
TABLE
  2
LAYER
 70
     4
  0
LAYER
  2
LC-003-002-----0
 70
    64
 62
     7
  6
CONTINUOUS
  0
LAYER
  2
LC-004-006-----0
 70
    64
 62
     7
  6
CONTINUOUS
  0
LAYER
  2
LC-006-012-----0
 70
    64
 62
     7
  6
CONTINUOUS
  0
LAYER
  2
LC-007-004-----0
 70
    64
 62
     7
  6
CONTINUOUS
  0
ENDTAB
  0
TABLE
  2
STYLE
 70
     1
  0
STYLE
  2
TXT8
 70
    64
 40
0.0
 41
1.0
 50
0.0
 71
     0
 42
3.500000
  3
TXT8
  4

  0
ENDTAB
  0
ENDSEC
  0
SECTION
  2
BLOCKS
  0
ENDSEC
  0
SECTION
  2
ENTITIES
  0
LINE
  8
LC-004-006-----0
 62
     2
  6
DASHDOT
 10
313.408325
 20
29.947836
 11
566.309937
 21
29.947836
  0
LINE
  8
LC-003-002-----0
 62
     1
  6
CONTINUOUS
 10
363.309204
 20
89.947838
 11
377.109192
 21
89.947838
  0
LINE
  8
LC-003-002-----0
 62
     1
  6
CONTINUOUS
 10
363.309204
 20
-30.052164
 11
377.109192
 21
-30.052164
  0
LINE
  8
LC-003-002-----0
 62
     1
  6
CONTINUOUS
 10
361.309204
 20
28.447836
 11
361.309204
 21
-28.052166
  0
LINE
  8
LC-003-002-----0
 62
     1
  6
CONTINUOUS
 10
361.309204
 20
87.947838
 11
361.309204
 21
31.447836
  0
LINE
  8
LC-003-002-----0
 62
     1
  6
CONTINUOUS
 10
526.309204
 20
28.447836
 11
526.309204
 21
-28.052166
  0
LINE
  8
LC-003-002-----0
 62
     1
  6
CONTINUOUS
 10
526.309204
 20
87.947838
 11
526.309204
 21
31.447836
  0
LINE
  8
LC-003-002-----0
 62
     1
  6
CONTINUOUS
 10
319.973389
 20
69.947838
 11
361.309204
 21
69.947838
  0
LINE
  8
LC-003-002-----0
 62
     1
  6
CONTINUOUS
 10
319.973389
 20
-10.052165
 11
361.309204
 21
-10.052165
  0
LINE
  8
LC-007-004-----0
 62
     2
  6
CONTINUOUS
 10
319.973389
 20
-10.052165
 11
324.240662
 21
2.702179
  0
LINE
  8
LC-007-004-----0
 62
     2
  6
CONTINUOUS
 10
324.240662
 20
2.702179
 11
318.809570
 21
20.484056
  0
LINE
  8
LC-007-004-----0
 62
     2
  6
CONTINUOUS
 10
318.809570
 20
20.484056
 11
323.852722
 21
42.562229
  0
LINE
  8
LC-007-004-----0
 62
     2
  6
CONTINUOUS
 10
323.852722
 20
42.562229
 11
316.094025
 21
58.327236
  0
LINE
  8
LC-007-004-----0
 62
     2
  6
CONTINUOUS
 10
316.094025
 20
58.327236
 11
319.973389
 21
69.947838
  0
LINE
  8
LC-007-004-----0
 62
     2
  6
CONTINUOUS
 10
560.553101
 20
-10.052165
 11
555.927734
 21
5.291889
  0
LINE
  8
LC-007-004-----0
 62
     2
  6
CONTINUOUS
 10
555.927734
 20
5.291889
 11
558.613464
 21
23.061832
  0
LINE
  8
LC-007-004-----0
 62
     2
  6
CONTINUOUS
 10
558.613464
 20
23.061832
 11
560.553101
 21
29.947836
  0
LINE
  8
LC-007-004-----0
 62
     2
  6
CONTINUOUS
 10
560.553101
 20
29.947836
 11
552.436340
 21
48.577038
  0
LINE
  8
LC-007-004-----0
 62
     2
  6
CONTINUOUS
 10
552.436340
 20
48.577038
 11
560.553101
 21
69.947838
  0
LINE
  8
LC-006-012-----0
 62
     2
  6
DASHED
 10
361.309204
 20
69.947838
 11
526.309204
 21
69.947838
  0
LINE
  8
LC-003-002-----0
 62
     1
  6
CONTINUOUS
 10
526.309204
 20
69.947838
 11
560.553101
 21
69.947838
  0
LINE
  8
LC-006-012-----0
 62
     2
  6
DASHED
 10
361.309204
 20
-10.052165
 11
526.309204
 21
-10.052165
  0
LINE
  8
LC-003-002-----0
 62
     1
  6
CONTINUOUS
 10
526.309204
 20
-10.052165
 11
560.553101
 21
-10.052165
  0
LINE
  8
LC-003-002-----0
 62
     1
  6
CONTINUOUS
 10
506.309204
 20
31.447836
 11
506.309204
 21
89.947838
  0
LINE
  8
LC-003-002-----0
 62
     1
  6
CONTINUOUS
 10
506.309204
 20
-30.052164
 11
506.309204
 21
28.447836
  0
LINE
  8
LC-003-002-----0
 62
     1
  6
CONTINUOUS
 10
381.309204
 20
31.447836
 11
381.309204
 21
89.947838
  0
LINE
  8
LC-003-002-----0
 62
     1
  6
CONTINUOUS
 10
381.309204
 20
-30.052164
 11
381.309204
 21
28.447836
  0
LINE
  8
LC-003-002-----0
 62
     1
  6
CONTINUOUS
 10
510.509216
 20
31.447836
 11
510.509216
 21
89.947838
  0
LINE
  8
LC-003-002-----0
 62
     1
  6
CONTINUOUS
 10
510.509216
 20
-30.052164
 11
510.509216
 21
28.447836
  0
LINE
  8
LC-003-002-----0
 62
     1
  6
CONTINUOUS
 10
377.109192
 20
31.447836
 11
377.109192
 21
89.947838
  0
LINE
  8
LC-003-002-----0
 62
     1
  6
CONTINUOUS
 10
377.109192
 20
-30.052164
 11
377.109192
 21
28.447836
  0
LINE
  8
LC-003-002-----0
 62
     1
  6
CONTINUOUS
 10
381.309204
 20
89.947838
 11
506.309204
 21
89.947838
  0
LINE
  8
LC-003-002-----0
 62
     1
  6
CONTINUOUS
 10
510.509216
 20
89.947838
 11
524.309204
 21
89.947838
  0
LINE
  8
LC-003-002-----0
 62
     1
  6
CONTINUOUS
 10
510.509216
 20
-30.052164
 11
524.309204
 21
-30.052164
  0
LINE
  8
LC-003-002-----0
 62
     1
  6
CONTINUOUS
 10
381.309204
 20
-30.052164
 11
506.309204
 21
-30.052164
  0
LINE
  8
LC-003-002-----0
 62
     1
  6
CONTINUOUS
 10
377.109192
 20
-26.052164
 11
381.309204
 21
-26.052164
  0
LINE
  8
LC-003-002-----0
 62
     1
  6
CONTINUOUS
 10
377.109192
 20
85.947838
 11
381.309204
 21
85.947838
  0
LINE
  8
LC-003-002-----0
 62
     1
  6
CONTINUOUS
 10
506.309204
 20
85.947838
 11
510.509216
 21
85.947838
  0
LINE
  8
LC-003-002-----0
 62
     1
  6
CONTINUOUS
 10
506.309204
 20
-26.052164
 11
510.509216
 21
-26.052164
  0
ARC
  8
LC-003-002-----0
 62
     1
  6
CONTINUOUS
 10
363.309204
 20
87.947838
 40
2.000000
 50
90.000003
 51
180.000009
  0
ARC
  8
LC-003-002-----0
 62
     1
  6
CONTINUOUS
 10
363.309204
 20
-28.052164
 40
2.000000
 50
180.000009
 51
269.999997
  0
ARC
  8
LC-003-002-----0
 62
     1
  6
CONTINUOUS
 10
524.309204
 20
-28.052164
 40
2.000000
 50
269.999997
 51
0.000000
  0
ARC
  8
LC-003-002-----0
 62
     1
  6
CONTINUOUS
 10
524.309204
 20
87.947838
 40
2.000000
 50
0.000000
 51
90.000003
  0
LINE
  8
LC-003-002-----0
 62
     1
  6
CONTINUOUS
 10
361.309204
 20
31.447836
 11
526.309204
 21
31.447836
  0
LINE
  8
LC-003-002-----0
 62
     1
  6
CONTINUOUS
 10
361.309204
 20
28.447836
 11
526.309204
 21
28.447836
  0
ENDSEC
  0
EOF
