  0
SECTION
  2
HEADER
  9
$LIMMIN
 10
-264.910828
 20
310.790649
  9
$LIMMAX
 10
-109.906837
 20
345.025360
  9
$EXTMIN
 10
-264.910828
 20
310.790649
  9
$EXTMAX
 10
-109.906837
 20
345.025360
  0
ENDSEC
  0
SECTION
  2
TABLES
  0
TABLE
  2
LTYPE
 70
     3
  0
LTYPE
  2
CONTINUOUS
 70
    64
  3
Ausgezogene Linie
 72
    65
 73
     0
 40
0.0
  0
LTYPE
  2
DASHED
 70
    64
  3
__ __ __ __ __ __ __ __ __ __ __ __ __ __ __
 72
    65
 73
     2
 40
0.75
 49
0.5
 49
-0.25
  0
LTYPE
  2
DASHDOT
 70
    64
  3
__ . __ . __ . __ . __ . __ . __ . __ . __ . __
 72
    65
 73
     4
 40
1.0
 49
0.5
 49
-0.25
 49
0.0
 49
-0.25
  0
ENDTAB
  0
TABLE
  2
LAYER
 70
     4
  0
LAYER
  2
LC-004-006-----0
 70
    64
 62
     7
  6
CONTINUOUS
  0
LAYER
  2
LC-003-002-----0
 70
    64
 62
     7
  6
CONTINUOUS
  0
LAYER
  2
LC-006-012-----0
 70
    64
 62
     7
  6
CONTINUOUS
  0
LAYER
  2
LC-007-004-----0
 70
    64
 62
     7
  6
CONTINUOUS
  0
ENDTAB
  0
TABLE
  2
STYLE
 70
     1
  0
STYLE
  2
TXT8
 70
    64
 40
0.0
 41
1.0
 50
0.0
 71
     0
 42
3.500000
  3
TXT8
  4

  0
ENDTAB
  0
ENDSEC
  0
SECTION
  2
BLOCKS
  0
ENDSEC
  0
SECTION
  2
ENTITIES
  0
LINE
  8
LC-003-002-----0
 62
     2
  6
DASHDOT
 10
-147.568542
 20
326.534485
 11
-109.906837
 21
326.534485
  0
LINE
  8
LC-003-002-----0
 62
     2
  6
DASHDOT
 10
-129.379929
 20
345.025360
 11
-129.379929
 21
310.790649
  0
ARC
  8
LC-004-006-----0
 62
     1
  6
CONTINUOUS
 10
-129.379929
 20
326.534485
 40
13.000000
 50
308.999999
 51
231.000007
  0
CIRCLE
  8
LC-004-006-----0
 62
     1
  6
CONTINUOUS
 10
-129.379929
 20
326.534485
 40
8.000000
  0
LINE
  8
LC-004-006-----0
 62
     1
  6
CONTINUOUS
 10
-124.188034
 20
320.123016
 11
-121.198769
 21
316.431580
  0
ARC
  8
LC-004-006-----0
 62
     1
  6
CONTINUOUS
 10
-129.379929
 20
326.534485
 40
8.250000
 50
308.999999
 51
231.000007
  0
LINE
  8
LC-004-006-----0
 62
     1
  6
CONTINUOUS
 10
-134.571823
 20
320.123016
 11
-137.561096
 21
316.431580
  0
ARC
  8
LC-004-006-----0
 62
     1
  6
CONTINUOUS
 10
-238.958389
 20
338.784485
 40
0.750000
 50
90.000003
 51
180.000009
  0
ARC
  8
LC-004-006-----0
 62
     1
  6
CONTINUOUS
 10
-204.458389
 20
338.784485
 40
0.750000
 50
0.000000
 51
90.000003
  0
ARC
  8
LC-004-006-----0
 62
     1
  6
CONTINUOUS
 10
-204.458389
 20
317.181580
 40
0.750000
 50
269.999997
 51
0.000000
  0
ARC
  8
LC-004-006-----0
 62
     1
  6
CONTINUOUS
 10
-238.958389
 20
317.181580
 40
0.750000
 50
180.000009
 51
269.999997
  0
LINE
  8
LC-003-002-----0
 62
     2
  6
DASHDOT
 10
-264.910828
 20
326.534485
 11
-178.957062
 21
326.534485
  0
LINE
  8
LC-004-006-----0
 62
     1
  6
CONTINUOUS
 10
-238.958389
 20
339.534485
 11
-234.008392
 21
339.534485
  0
LINE
  8
LC-004-006-----0
 62
     1
  6
CONTINUOUS
 10
-238.958389
 20
316.431580
 11
-234.008392
 21
316.431580
  0
LINE
  8
LC-004-006-----0
 62
     1
  6
CONTINUOUS
 10
-239.708389
 20
317.181580
 11
-239.708389
 21
338.784485
  0
LINE
  8
LC-004-006-----0
 62
     1
  6
CONTINUOUS
 10
-203.708389
 20
317.181580
 11
-203.708389
 21
338.784485
  0
LINE
  8
LC-004-006-----0
 62
     1
  6
CONTINUOUS
 10
-260.853516
 20
334.534485
 11
-239.708374
 21
334.534485
  0
LINE
  8
LC-004-006-----0
 62
     1
  6
CONTINUOUS
 10
-261.564728
 20
318.534485
 11
-239.708389
 21
318.534485
  0
LINE
  8
LC-007-004-----0
 62
     2
  6
CONTINUOUS
 10
-261.564728
 20
318.534485
 11
-260.578705
 21
322.624786
  0
LINE
  8
LC-007-004-----0
 62
     2
  6
CONTINUOUS
 10
-260.578705
 20
322.624786
 11
-261.689972
 21
331.395996
  0
LINE
  8
LC-007-004-----0
 62
     2
  6
CONTINUOUS
 10
-261.689972
 20
331.395996
 11
-260.853516
 21
334.534485
  0
LINE
  8
LC-007-004-----0
 62
     2
  6
CONTINUOUS
 10
-183.520782
 20
318.534485
 11
-182.971375
 21
323.203552
  0
LINE
  8
LC-007-004-----0
 62
     2
  6
CONTINUOUS
 10
-182.971375
 20
323.203552
 11
-184.875153
 21
331.478668
  0
LINE
  8
LC-007-004-----0
 62
     2
  6
CONTINUOUS
 10
-184.875153
 20
331.478668
 11
-184.391251
 21
334.534485
  0
LINE
  8
LC-006-012-----0
 62
     2
  6
DASHED
 10
-239.708389
 20
334.534485
 11
-203.708389
 21
334.534485
  0
LINE
  8
LC-004-006-----0
 62
     1
  6
CONTINUOUS
 10
-203.708389
 20
334.534485
 11
-184.391251
 21
334.534485
  0
LINE
  8
LC-006-012-----0
 62
     2
  6
DASHED
 10
-239.708389
 20
318.534485
 11
-203.708389
 21
318.534485
  0
LINE
  8
LC-004-006-----0
 62
     1
  6
CONTINUOUS
 10
-203.708389
 20
318.534485
 11
-183.520782
 21
318.534485
  0
LINE
  8
LC-004-006-----0
 62
     1
  6
CONTINUOUS
 10
-232.708389
 20
339.534485
 11
-210.708389
 21
339.534485
  0
LINE
  8
LC-004-006-----0
 62
     1
  6
CONTINUOUS
 10
-210.708389
 20
316.431580
 11
-210.708389
 21
339.534485
  0
LINE
  8
LC-004-006-----0
 62
     1
  6
CONTINUOUS
 10
-232.708389
 20
316.431580
 11
-232.708389
 21
339.534485
  0
LINE
  8
LC-004-006-----0
 62
     1
  6
CONTINUOUS
 10
-209.408386
 20
316.431580
 11
-209.408386
 21
339.534485
  0
LINE
  8
LC-004-006-----0
 62
     1
  6
CONTINUOUS
 10
-234.008392
 20
316.431580
 11
-234.008392
 21
339.534485
  0
LINE
  8
LC-004-006-----0
 62
     1
  6
CONTINUOUS
 10
-209.408386
 20
339.534485
 11
-204.458389
 21
339.534485
  0
LINE
  8
LC-004-006-----0
 62
     1
  6
CONTINUOUS
 10
-209.408386
 20
316.431580
 11
-204.458389
 21
316.431580
  0
LINE
  8
LC-004-006-----0
 62
     1
  6
CONTINUOUS
 10
-232.708389
 20
316.431580
 11
-210.708389
 21
316.431580
  0
LINE
  8
LC-004-006-----0
 62
     1
  6
CONTINUOUS
 10
-234.008392
 20
338.784485
 11
-232.708389
 21
338.784485
  0
LINE
  8
LC-004-006-----0
 62
     1
  6
CONTINUOUS
 10
-210.708389
 20
338.784485
 11
-209.408386
 21
338.784485
  0
LINE
  8
LC-004-006-----0
 62
     1
  6
CONTINUOUS
 10
-210.708389
 20
317.181580
 11
-209.408386
 21
317.181580
  0
LINE
  8
LC-004-006-----0
 62
     1
  6
CONTINUOUS
 10
-234.008392
 20
317.181580
 11
-232.708389
 21
317.181580
  0
LINE
  8
LC-003-002-----0
 62
     2
  6
DASHDOT
 10
-221.708389
 20
330.019348
 11
-221.708389
 21
323.079102
  0
CIRCLE
  8
LC-006-012-----0
 62
     2
  6
DASHED
 10
-221.708389
 20
326.534485
 40
1.800000
  0
CIRCLE
  8
LC-006-012-----0
 62
     2
  6
DASHED
 10
-221.708389
 20
326.534485
 40
0.750000
  0
ARC
  8
LC-004-006-----0
 62
     1
  6
CONTINUOUS
 10
-129.379929
 20
326.534485
 40
11.000000
 50
308.999999
 51
231.000007
  0
LINE
  8
LC-006-012-----0
 62
     2
  6
DASHED
 10
-141.379929
 20
327.284485
 11
-137.595764
 21
327.284485
  0
LINE
  8
LC-006-012-----0
 62
     2
  6
DASHED
 10
-141.379929
 20
325.784485
 11
-137.595764
 21
325.784485
  0
LINE
  8
LC-006-012-----0
 62
     2
  6
DASHED
 10
-142.254715
 20
324.734467
 11
-141.379929
 21
324.734467
  0
LINE
  8
LC-006-012-----0
 62
     2
  6
DASHED
 10
-142.254715
 20
328.334473
 11
-141.379929
 21
328.334473
  0
LINE
  8
LC-006-012-----0
 62
     2
  6
DASHED
 10
-141.379929
 20
324.734467
 11
-141.379929
 21
328.334473
  0
ENDSEC
  0
EOF
