  0
SECTION
  2
HEADER
  9
$LIMMIN
 10
-264.107788
 20
169.807617
  9
$LIMMAX
 10
-86.693436
 20
208.093430
  9
$EXTMIN
 10
-264.107788
 20
169.807617
  9
$EXTMAX
 10
-86.693436
 20
208.093430
  0
ENDSEC
  0
SECTION
  2
TABLES
  0
TABLE
  2
LTYPE
 70
     3
  0
LTYPE
  2
CONTINUOUS
 70
    64
  3
Ausgezogene Linie
 72
    65
 73
     0
 40
0.0
  0
LTYPE
  2
DASHED
 70
    64
  3
__ __ __ __ __ __ __ __ __ __ __ __ __ __ __
 72
    65
 73
     2
 40
0.75
 49
0.5
 49
-0.25
  0
LTYPE
  2
DASHDOT
 70
    64
  3
__ . __ . __ . __ . __ . __ . __ . __ . __ . __
 72
    65
 73
     4
 40
1.0
 49
0.5
 49
-0.25
 49
0.0
 49
-0.25
  0
ENDTAB
  0
TABLE
  2
LAYER
 70
     4
  0
LAYER
  2
LC-004-006-----0
 70
    64
 62
     7
  6
CONTINUOUS
  0
LAYER
  2
LC-003-002-----0
 70
    64
 62
     7
  6
CONTINUOUS
  0
LAYER
  2
LC-006-012-----0
 70
    64
 62
     7
  6
CONTINUOUS
  0
LAYER
  2
LC-007-004-----0
 70
    64
 62
     7
  6
CONTINUOUS
  0
ENDTAB
  0
TABLE
  2
STYLE
 70
     1
  0
STYLE
  2
TXT8
 70
    64
 40
0.0
 41
1.0
 50
0.0
 71
     0
 42
3.500000
  3
TXT8
  4

  0
ENDTAB
  0
ENDSEC
  0
SECTION
  2
BLOCKS
  0
ENDSEC
  0
SECTION
  2
ENTITIES
  0
LINE
  8
LC-003-002-----0
 62
     2
  6
DASHDOT
 10
-126.678703
 20
187.880173
 11
-86.693436
 21
187.880173
  0
LINE
  8
LC-003-002-----0
 62
     2
  6
DASHDOT
 10
-106.572685
 20
208.093430
 11
-106.572685
 21
169.807617
  0
CIRCLE
  8
LC-004-006-----0
 62
     1
  6
CONTINUOUS
 10
-106.572685
 20
187.880173
 40
10.000000
  0
ARC
  8
LC-004-006-----0
 62
     1
  6
CONTINUOUS
 10
-106.572685
 20
187.880173
 40
16.000000
 50
299.999998
 51
239.999997
  0
ARC
  8
LC-004-006-----0
 62
     1
  6
CONTINUOUS
 10
-106.572685
 20
187.880173
 40
10.250000
 50
299.999998
 51
239.999997
  0
LINE
  8
LC-004-006-----0
 62
     1
  6
CONTINUOUS
 10
-101.447685
 20
179.003403
 11
-98.572685
 21
174.023758
  0
LINE
  8
LC-004-006-----0
 62
     1
  6
CONTINUOUS
 10
-111.697685
 20
179.003403
 11
-114.572685
 21
174.023758
  0
ARC
  8
LC-004-006-----0
 62
     1
  6
CONTINUOUS
 10
-238.958389
 20
203.130173
 40
0.750000
 50
90.000003
 51
180.000009
  0
ARC
  8
LC-004-006-----0
 62
     1
  6
CONTINUOUS
 10
-238.958389
 20
174.773758
 40
0.750000
 50
180.000009
 51
269.999997
  0
ARC
  8
LC-004-006-----0
 62
     1
  6
CONTINUOUS
 10
-195.458389
 20
174.773758
 40
0.750000
 50
269.999997
 51
0.000000
  0
ARC
  8
LC-004-006-----0
 62
     1
  6
CONTINUOUS
 10
-195.458389
 20
203.130173
 40
0.750000
 50
0.000000
 51
90.000003
  0
LINE
  8
LC-003-002-----0
 62
     2
  6
DASHDOT
 10
-264.107788
 20
187.880173
 11
-167.337036
 21
187.880173
  0
LINE
  8
LC-004-006-----0
 62
     1
  6
CONTINUOUS
 10
-238.958389
 20
203.880173
 11
-232.808395
 21
203.880173
  0
LINE
  8
LC-004-006-----0
 62
     1
  6
CONTINUOUS
 10
-238.958389
 20
174.023758
 11
-232.808395
 21
174.023758
  0
LINE
  8
LC-004-006-----0
 62
     1
  6
CONTINUOUS
 10
-239.708389
 20
174.773758
 11
-239.708389
 21
203.130173
  0
LINE
  8
LC-004-006-----0
 62
     1
  6
CONTINUOUS
 10
-194.708389
 20
174.773758
 11
-194.708389
 21
203.130173
  0
LINE
  8
LC-004-006-----0
 62
     1
  6
CONTINUOUS
 10
-261.592621
 20
197.880173
 11
-239.708389
 21
197.880173
  0
LINE
  8
LC-004-006-----0
 62
     1
  6
CONTINUOUS
 10
-262.610046
 20
177.880173
 11
-239.708374
 21
177.880173
  0
LINE
  8
LC-006-012-----0
 62
     2
  6
DASHED
 10
-239.708389
 20
197.880173
 11
-194.708389
 21
197.880173
  0
LINE
  8
LC-004-006-----0
 62
     1
  6
CONTINUOUS
 10
-194.708389
 20
197.880173
 11
-172.755478
 21
197.880173
  0
LINE
  8
LC-006-012-----0
 62
     2
  6
DASHED
 10
-239.708389
 20
177.880173
 11
-194.708389
 21
177.880173
  0
LINE
  8
LC-004-006-----0
 62
     1
  6
CONTINUOUS
 10
-194.708389
 20
177.880173
 11
-171.418900
 21
177.880173
  0
LINE
  8
LC-007-004-----0
 62
     2
  6
CONTINUOUS
 10
-262.610046
 20
177.880173
 11
-261.127075
 21
183.568085
  0
LINE
  8
LC-007-004-----0
 62
     2
  6
CONTINUOUS
 10
-261.127075
 20
183.568085
 11
-262.836182
 21
194.485458
  0
LINE
  8
LC-007-004-----0
 62
     2
  6
CONTINUOUS
 10
-262.836182
 20
194.485458
 11
-261.592621
 21
197.880173
  0
LINE
  8
LC-007-004-----0
 62
     2
  6
CONTINUOUS
 10
-171.418900
 20
177.880173
 11
-172.778320
 21
184.292908
  0
LINE
  8
LC-007-004-----0
 62
     2
  6
CONTINUOUS
 10
-172.778320
 20
184.292908
 11
-171.811066
 21
194.395309
  0
LINE
  8
LC-007-004-----0
 62
     2
  6
CONTINUOUS
 10
-171.811066
 20
194.395309
 11
-172.755478
 21
197.880173
  0
LINE
  8
LC-004-006-----0
 62
     1
  6
CONTINUOUS
 10
-203.208389
 20
174.023758
 11
-203.208389
 21
203.880173
  0
LINE
  8
LC-004-006-----0
 62
     1
  6
CONTINUOUS
 10
-231.208389
 20
174.023758
 11
-231.208389
 21
203.880173
  0
LINE
  8
LC-004-006-----0
 62
     1
  6
CONTINUOUS
 10
-201.608383
 20
174.023758
 11
-201.608383
 21
203.880173
  0
LINE
  8
LC-004-006-----0
 62
     1
  6
CONTINUOUS
 10
-232.808395
 20
174.023758
 11
-232.808395
 21
203.880173
  0
LINE
  8
LC-004-006-----0
 62
     1
  6
CONTINUOUS
 10
-231.208389
 20
203.880173
 11
-203.208389
 21
203.880173
  0
LINE
  8
LC-004-006-----0
 62
     1
  6
CONTINUOUS
 10
-231.208389
 20
174.023758
 11
-203.208389
 21
174.023758
  0
LINE
  8
LC-004-006-----0
 62
     1
  6
CONTINUOUS
 10
-201.608383
 20
174.023758
 11
-195.458389
 21
174.023758
  0
LINE
  8
LC-004-006-----0
 62
     1
  6
CONTINUOUS
 10
-201.608383
 20
203.880173
 11
-195.458389
 21
203.880173
  0
LINE
  8
LC-004-006-----0
 62
     1
  6
CONTINUOUS
 10
-232.808395
 20
203.030167
 11
-231.208389
 21
203.030167
  0
LINE
  8
LC-004-006-----0
 62
     1
  6
CONTINUOUS
 10
-203.208389
 20
203.030167
 11
-201.608383
 21
203.030167
  0
LINE
  8
LC-004-006-----0
 62
     1
  6
CONTINUOUS
 10
-203.208389
 20
174.873764
 11
-201.608383
 21
174.873764
  0
LINE
  8
LC-004-006-----0
 62
     1
  6
CONTINUOUS
 10
-232.808395
 20
174.873764
 11
-231.208389
 21
174.873764
  0
LINE
  8
LC-003-002-----0
 62
     2
  6
DASHDOT
 10
-217.208389
 20
191.404831
 11
-217.208389
 21
184.242218
  0
CIRCLE
  8
LC-006-012-----0
 62
     2
  6
DASHED
 10
-217.208389
 20
187.880173
 40
0.750000
  0
CIRCLE
  8
LC-006-012-----0
 62
     2
  6
DASHED
 10
-217.208389
 20
187.880173
 40
1.800000
  0
ARC
  8
LC-004-006-----0
 62
     1
  6
CONTINUOUS
 10
-106.572685
 20
187.880173
 40
14.000000
 50
299.999998
 51
239.999997
  0
LINE
  8
LC-006-012-----0
 62
     2
  6
DASHED
 10
-121.372681
 20
188.630173
 11
-116.795212
 21
188.630173
  0
LINE
  8
LC-006-012-----0
 62
     2
  6
DASHED
 10
-121.372681
 20
187.130173
 11
-116.795212
 21
187.130173
  0
LINE
  8
LC-006-012-----0
 62
     2
  6
DASHED
 10
-122.471107
 20
189.680161
 11
-121.372681
 21
189.680161
  0
LINE
  8
LC-006-012-----0
 62
     2
  6
DASHED
 10
-122.471107
 20
186.080170
 11
-121.372681
 21
186.080170
  0
LINE
  8
LC-006-012-----0
 62
     2
  6
DASHED
 10
-121.372681
 20
186.080170
 11
-121.372681
 21
189.680161
  0
ENDSEC
  0
EOF
