  0
SECTION
  2
HEADER
  9
$LIMMIN
 10
-271.911865
 20
-175.132141
  9
$LIMMAX
 10
-26.780685
 20
-118.304298
  9
$EXTMIN
 10
-271.911865
 20
-175.132141
  9
$EXTMAX
 10
-26.780685
 20
-118.304298
  0
ENDSEC
  0
SECTION
  2
TABLES
  0
TABLE
  2
LTYPE
 70
     3
  0
LTYPE
  2
CONTINUOUS
 70
    64
  3
Ausgezogene Linie
 72
    65
 73
     0
 40
0.0
  0
LTYPE
  2
DASHED
 70
    64
  3
__ __ __ __ __ __ __ __ __ __ __ __ __ __ __
 72
    65
 73
     2
 40
0.75
 49
0.5
 49
-0.25
  0
LTYPE
  2
DASHDOT
 70
    64
  3
__ . __ . __ . __ . __ . __ . __ . __ . __ . __
 72
    65
 73
     4
 40
1.0
 49
0.5
 49
-0.25
 49
0.0
 49
-0.25
  0
ENDTAB
  0
TABLE
  2
LAYER
 70
     4
  0
LAYER
  2
LC-004-006-----0
 70
    64
 62
     7
  6
CONTINUOUS
  0
LAYER
  2
LC-003-002-----0
 70
    64
 62
     7
  6
CONTINUOUS
  0
LAYER
  2
LC-006-012-----0
 70
    64
 62
     7
  6
CONTINUOUS
  0
LAYER
  2
LC-007-004-----0
 70
    64
 62
     7
  6
CONTINUOUS
  0
ENDTAB
  0
TABLE
  2
STYLE
 70
     1
  0
STYLE
  2
TXT8
 70
    64
 40
0.0
 41
1.0
 50
0.0
 71
     0
 42
3.500000
  3
TXT8
  4

  0
ENDTAB
  0
ENDSEC
  0
SECTION
  2
BLOCKS
  0
ENDSEC
  0
SECTION
  2
ENTITIES
  0
LINE
  8
LC-003-002-----0
 62
     2
  6
DASHDOT
 10
-86.334106
 20
-148.762772
 11
-26.780685
 21
-148.762772
  0
LINE
  8
LC-003-002-----0
 62
     2
  6
DASHDOT
 10
-56.669922
 20
-118.304298
 11
-56.669922
 21
-175.132141
  0
CIRCLE
  8
LC-004-006-----0
 62
     1
  6
CONTINUOUS
 10
-56.669922
 20
-148.762772
 40
15.000000
  0
ARC
  8
LC-004-006-----0
 62
     1
  6
CONTINUOUS
 10
-56.669922
 20
-148.762772
 40
23.500000
 50
294.999999
 51
244.999996
  0
ARC
  8
LC-004-006-----0
 62
     1
  6
CONTINUOUS
 10
-56.669922
 20
-148.762772
 40
15.500000
 50
294.999999
 51
244.999996
  0
LINE
  8
LC-004-006-----0
 62
     1
  6
CONTINUOUS
 10
-50.119335
 20
-162.810547
 11
-46.738392
 21
-170.061005
  0
LINE
  8
LC-004-006-----0
 62
     1
  6
CONTINUOUS
 10
-63.220505
 20
-162.810547
 11
-66.601448
 21
-170.061005
  0
LINE
  8
LC-003-002-----0
 62
     2
  6
DASHDOT
 10
-271.911865
 20
-148.762772
 11
-140.537216
 21
-148.762772
  0
LINE
  8
LC-004-006-----0
 62
     1
  6
CONTINUOUS
 10
-238.458389
 20
-125.262779
 11
-231.558395
 21
-125.262779
  0
LINE
  8
LC-004-006-----0
 62
     1
  6
CONTINUOUS
 10
-238.458389
 20
-170.061005
 11
-231.558395
 21
-170.061005
  0
LINE
  8
LC-004-006-----0
 62
     1
  6
CONTINUOUS
 10
-239.708389
 20
-126.512779
 11
-239.708389
 21
-168.811005
  0
LINE
  8
LC-004-006-----0
 62
     1
  6
CONTINUOUS
 10
-171.708389
 20
-126.512779
 11
-171.708389
 21
-168.811005
  0
LINE
  8
LC-004-006-----0
 62
     1
  6
CONTINUOUS
 10
-265.323090
 20
-133.762772
 11
-239.708389
 21
-133.762772
  0
LINE
  8
LC-004-006-----0
 62
     1
  6
CONTINUOUS
 10
-266.614807
 20
-163.762772
 11
-239.708389
 21
-163.762772
  0
LINE
  8
LC-007-004-----0
 62
     2
  6
CONTINUOUS
 10
-266.614807
 20
-163.762772
 11
-265.216309
 21
-158.725845
  0
LINE
  8
LC-007-004-----0
 62
     2
  6
CONTINUOUS
 10
-265.216309
 20
-158.725845
 11
-267.650787
 21
-142.157211
  0
LINE
  8
LC-007-004-----0
 62
     2
  6
CONTINUOUS
 10
-267.650787
 20
-142.157211
 11
-265.323090
 21
-133.762772
  0
LINE
  8
LC-007-004-----0
 62
     2
  6
CONTINUOUS
 10
-145.483475
 20
-163.762772
 11
-144.290390
 21
-156.222305
  0
LINE
  8
LC-007-004-----0
 62
     2
  6
CONTINUOUS
 10
-144.290390
 20
-156.222305
 11
-147.116119
 21
-142.991730
  0
LINE
  8
LC-007-004-----0
 62
     2
  6
CONTINUOUS
 10
-147.116119
 20
-142.991730
 11
-146.173477
 21
-133.762772
  0
LINE
  8
LC-006-012-----0
 62
     2
  6
DASHED
 10
-239.708389
 20
-133.762772
 11
-171.708389
 21
-133.762772
  0
LINE
  8
LC-004-006-----0
 62
     1
  6
CONTINUOUS
 10
-171.708389
 20
-133.762772
 11
-146.173477
 21
-133.762772
  0
LINE
  8
LC-006-012-----0
 62
     2
  6
DASHED
 10
-239.708389
 20
-163.762772
 11
-171.708389
 21
-163.762772
  0
LINE
  8
LC-004-006-----0
 62
     1
  6
CONTINUOUS
 10
-171.708389
 20
-163.762772
 11
-145.483475
 21
-163.762772
  0
LINE
  8
LC-004-006-----0
 62
     1
  6
CONTINUOUS
 10
-231.558395
 20
-168.561005
 11
-229.708389
 21
-168.561005
  0
LINE
  8
LC-004-006-----0
 62
     1
  6
CONTINUOUS
 10
-181.708389
 20
-125.262779
 11
-181.708389
 21
-170.061005
  0
LINE
  8
LC-004-006-----0
 62
     1
  6
CONTINUOUS
 10
-229.708389
 20
-125.262779
 11
-229.708389
 21
-170.061005
  0
LINE
  8
LC-004-006-----0
 62
     1
  6
CONTINUOUS
 10
-179.858383
 20
-125.262779
 11
-179.858383
 21
-170.061005
  0
LINE
  8
LC-004-006-----0
 62
     1
  6
CONTINUOUS
 10
-231.558395
 20
-125.262779
 11
-231.558395
 21
-170.061005
  0
LINE
  8
LC-004-006-----0
 62
     1
  6
CONTINUOUS
 10
-229.708389
 20
-170.061005
 11
-181.708389
 21
-170.061005
  0
LINE
  8
LC-004-006-----0
 62
     1
  6
CONTINUOUS
 10
-179.858383
 20
-170.061005
 11
-172.958389
 21
-170.061005
  0
LINE
  8
LC-004-006-----0
 62
     1
  6
CONTINUOUS
 10
-179.858383
 20
-125.262779
 11
-172.958389
 21
-125.262779
  0
LINE
  8
LC-004-006-----0
 62
     1
  6
CONTINUOUS
 10
-229.708389
 20
-125.262779
 11
-181.708389
 21
-125.262779
  0
LINE
  8
LC-004-006-----0
 62
     1
  6
CONTINUOUS
 10
-231.558395
 20
-126.762779
 11
-229.708389
 21
-126.762779
  0
LINE
  8
LC-004-006-----0
 62
     1
  6
CONTINUOUS
 10
-181.708389
 20
-126.762779
 11
-179.858383
 21
-126.762779
  0
LINE
  8
LC-004-006-----0
 62
     1
  6
CONTINUOUS
 10
-181.708389
 20
-168.561005
 11
-179.858383
 21
-168.561005
  0
ARC
  8
LC-004-006-----0
 62
     1
  6
CONTINUOUS
 10
-238.458389
 20
-126.512779
 40
1.250000
 50
90.000003
 51
180.000009
  0
ARC
  8
LC-004-006-----0
 62
     1
  6
CONTINUOUS
 10
-238.458389
 20
-168.811005
 40
1.250000
 50
180.000009
 51
269.999997
  0
ARC
  8
LC-004-006-----0
 62
     1
  6
CONTINUOUS
 10
-172.958389
 20
-168.811005
 40
1.250000
 50
269.999997
 51
0.000000
  0
ARC
  8
LC-004-006-----0
 62
     1
  6
CONTINUOUS
 10
-172.958389
 20
-126.512779
 40
1.250000
 50
0.000000
 51
90.000003
  0
LINE
  8
LC-003-002-----0
 62
     2
  6
DASHDOT
 10
-202.629211
 20
-146.762772
 11
-208.782379
 21
-146.762772
  0
LINE
  8
LC-003-002-----0
 62
     2
  6
DASHDOT
 10
-205.708389
 20
-143.423355
 11
-205.708389
 21
-150.153976
  0
CIRCLE
  8
LC-006-012-----0
 62
     2
  6
DASHED
 10
-205.708389
 20
-146.762772
 40
0.750000
  0
CIRCLE
  8
LC-006-012-----0
 62
     2
  6
DASHED
 10
-205.708389
 20
-146.762772
 40
1.500000
  0
ARC
  8
LC-004-006-----0
 62
     1
  6
CONTINUOUS
 10
-56.669922
 20
-148.762772
 40
20.000000
 50
294.999999
 51
244.999996
  0
LINE
  8
LC-003-002-----0
 62
     2
  6
DASHDOT
 10
-83.051079
 20
-146.762772
 11
-67.913170
 21
-146.762772
  0
LINE
  8
LC-006-012-----0
 62
     2
  6
DASHED
 10
-78.284660
 20
-146.012772
 11
-71.924019
 21
-146.012772
  0
LINE
  8
LC-006-012-----0
 62
     2
  6
DASHED
 10
-78.284660
 20
-147.512772
 11
-72.119431
 21
-147.512772
  0
LINE
  8
LC-006-012-----0
 62
     2
  6
DASHED
 10
-79.860649
 20
-144.962784
 11
-78.284660
 21
-144.962784
  0
LINE
  8
LC-006-012-----0
 62
     2
  6
DASHED
 10
-80.169067
 20
-148.562775
 11
-78.284660
 21
-148.562775
  0
LINE
  8
LC-006-012-----0
 62
     2
  6
DASHED
 10
-78.284660
 20
-148.562775
 11
-78.284660
 21
-144.962784
  0
ENDSEC
  0
EOF
