  0
SECTION
  2
HEADER
  9
$LIMMIN
 10
88.890030
 20
31.651323
  9
$LIMMAX
 10
461.395264
 20
136.199615
  9
$EXTMIN
 10
88.890030
 20
31.651323
  9
$EXTMAX
 10
461.395264
 20
136.199615
  0
ENDSEC
  0
SECTION
  2
TABLES
  0
TABLE
  2
LTYPE
 70
     3
  0
LTYPE
  2
CONTINUOUS
 70
    64
  3
Ausgezogene Linie
 72
    65
 73
     0
 40
0.0
  0
LTYPE
  2
DASHED
 70
    64
  3
__ __ __ __ __ __ __ __ __ __ __ __ __ __ __
 72
    65
 73
     2
 40
0.75
 49
0.5
 49
-0.25
  0
LTYPE
  2
DASHDOT
 70
    64
  3
__ . __ . __ . __ . __ . __ . __ . __ . __ . __
 72
    65
 73
     4
 40
1.0
 49
0.5
 49
-0.25
 49
0.0
 49
-0.25
  0
ENDTAB
  0
TABLE
  2
LAYER
 70
     4
  0
LAYER
  2
LC-004-006-----0
 70
    64
 62
     7
  6
CONTINUOUS
  0
LAYER
  2
LC-003-002-----0
 70
    64
 62
     7
  6
CONTINUOUS
  0
LAYER
  2
LC-006-012-----0
 70
    64
 62
     7
  6
CONTINUOUS
  0
LAYER
  2
LC-007-004-----0
 70
    64
 62
     7
  6
CONTINUOUS
  0
ENDTAB
  0
TABLE
  2
STYLE
 70
     1
  0
STYLE
  2
TXT8
 70
    64
 40
0.0
 41
1.0
 50
0.0
 71
     0
 42
3.500000
  3
TXT8
  4

  0
ENDTAB
  0
ENDSEC
  0
SECTION
  2
BLOCKS
  0
ENDSEC
  0
SECTION
  2
ENTITIES
  0
LINE
  8
LC-003-002-----0
 62
     2
  6
DASHDOT
 10
351.575989
 20
82.245399
 11
461.395264
 21
82.245399
  0
LINE
  8
LC-003-002-----0
 62
     2
  6
DASHDOT
 10
407.446686
 20
136.199615
 11
407.446686
 21
31.651323
  0
CIRCLE
  8
LC-004-006-----0
 62
     1
  6
CONTINUOUS
 10
407.446686
 20
82.245399
 40
30.000000
  0
ARC
  8
LC-004-006-----0
 62
     1
  6
CONTINUOUS
 10
407.446686
 20
82.245399
 40
45.000000
 50
297.000002
 51
242.999993
  0
ARC
  8
LC-004-006-----0
 62
     1
  6
CONTINUOUS
 10
407.446686
 20
82.245399
 40
31.000000
 50
297.000002
 51
242.999993
  0
LINE
  8
LC-004-006-----0
 62
     1
  6
CONTINUOUS
 10
421.520386
 20
54.624199
 11
427.876251
 21
42.150108
  0
LINE
  8
LC-004-006-----0
 62
     1
  6
CONTINUOUS
 10
393.372986
 20
54.624199
 11
387.017120
 21
42.150108
  0
LINE
  8
LC-003-002-----0
 62
     2
  6
DASHDOT
 10
88.890030
 20
82.245399
 11
300.178680
 21
82.245399
  0
LINE
  8
LC-004-006-----0
 62
     1
  6
CONTINUOUS
 10
134.036911
 20
127.245399
 11
144.136902
 21
127.245399
  0
LINE
  8
LC-004-006-----0
 62
     1
  6
CONTINUOUS
 10
134.036911
 20
42.150108
 11
144.136902
 21
42.150108
  0
LINE
  8
LC-004-006-----0
 62
     1
  6
CONTINUOUS
 10
132.286911
 20
125.495399
 11
132.286911
 21
43.900112
  0
LINE
  8
LC-004-006-----0
 62
     1
  6
CONTINUOUS
 10
257.286896
 20
125.495399
 11
257.286896
 21
43.900112
  0
LINE
  8
LC-004-006-----0
 62
     1
  6
CONTINUOUS
 10
98.907005
 20
112.245399
 11
132.286911
 21
112.245399
  0
LINE
  8
LC-004-006-----0
 62
     1
  6
CONTINUOUS
 10
96.869606
 20
52.245403
 11
132.286911
 21
52.245403
  0
LINE
  8
LC-007-004-----0
 62
     2
  6
CONTINUOUS
 10
96.869606
 20
52.245403
 11
99.474892
 21
60.792458
  0
LINE
  8
LC-007-004-----0
 62
     2
  6
CONTINUOUS
 10
99.474892
 20
60.792458
 11
96.285561
 21
76.776016
  0
LINE
  8
LC-007-004-----0
 62
     2
  6
CONTINUOUS
 10
96.285561
 20
76.776016
 11
101.678146
 21
97.208359
  0
LINE
  8
LC-007-004-----0
 62
     2
  6
CONTINUOUS
 10
101.678146
 20
97.208359
 11
98.907005
 21
112.245399
  0
LINE
  8
LC-007-004-----0
 62
     2
  6
CONTINUOUS
 10
293.585724
 20
52.245403
 11
291.981934
 21
61.088223
  0
LINE
  8
LC-007-004-----0
 62
     2
  6
CONTINUOUS
 10
291.981934
 20
61.088223
 11
295.386963
 21
76.628136
  0
LINE
  8
LC-007-004-----0
 62
     2
  6
CONTINUOUS
 10
295.386963
 20
76.628136
 11
289.994385
 21
96.167023
  0
LINE
  8
LC-007-004-----0
 62
     2
  6
CONTINUOUS
 10
289.994385
 20
96.167023
 11
293.362030
 21
112.245399
  0
LINE
  8
LC-006-012-----0
 62
     2
  6
DASHED
 10
132.286911
 20
112.245399
 11
257.286896
 21
112.245399
  0
LINE
  8
LC-004-006-----0
 62
     1
  6
CONTINUOUS
 10
257.286896
 20
112.245399
 11
293.362030
 21
112.245399
  0
LINE
  8
LC-006-012-----0
 62
     2
  6
DASHED
 10
132.286911
 20
52.245403
 11
257.286896
 21
52.245403
  0
LINE
  8
LC-004-006-----0
 62
     1
  6
CONTINUOUS
 10
257.286896
 20
52.245403
 11
293.585724
 21
52.245403
  0
LINE
  8
LC-004-006-----0
 62
     1
  6
CONTINUOUS
 10
242.286911
 20
42.150108
 11
242.286911
 21
127.245399
  0
LINE
  8
LC-004-006-----0
 62
     1
  6
CONTINUOUS
 10
147.286911
 20
42.150108
 11
147.286911
 21
127.245399
  0
LINE
  8
LC-004-006-----0
 62
     1
  6
CONTINUOUS
 10
245.436905
 20
42.150108
 11
245.436905
 21
127.245399
  0
LINE
  8
LC-004-006-----0
 62
     1
  6
CONTINUOUS
 10
144.136902
 20
42.150108
 11
144.136902
 21
127.245399
  0
LINE
  8
LC-004-006-----0
 62
     1
  6
CONTINUOUS
 10
147.286911
 20
42.150108
 11
242.286911
 21
42.150108
  0
LINE
  8
LC-004-006-----0
 62
     1
  6
CONTINUOUS
 10
245.436905
 20
42.150108
 11
255.536911
 21
42.150108
  0
LINE
  8
LC-004-006-----0
 62
     1
  6
CONTINUOUS
 10
245.436905
 20
127.245399
 11
255.536911
 21
127.245399
  0
LINE
  8
LC-004-006-----0
 62
     1
  6
CONTINUOUS
 10
147.286911
 20
127.245399
 11
242.286911
 21
127.245399
  0
LINE
  8
LC-004-006-----0
 62
     1
  6
CONTINUOUS
 10
144.136902
 20
125.495399
 11
147.286911
 21
125.495399
  0
LINE
  8
LC-004-006-----0
 62
     1
  6
CONTINUOUS
 10
242.286911
 20
125.495399
 11
245.436905
 21
125.495399
  0
LINE
  8
LC-004-006-----0
 62
     1
  6
CONTINUOUS
 10
242.286911
 20
43.900108
 11
245.436905
 21
43.900108
  0
LINE
  8
LC-004-006-----0
 62
     1
  6
CONTINUOUS
 10
144.136902
 20
43.900108
 11
147.286911
 21
43.900108
  0
ARC
  8
LC-004-006-----0
 62
     1
  6
CONTINUOUS
 10
134.036911
 20
125.495399
 40
1.750000
 50
90.000003
 51
180.000009
  0
ARC
  8
LC-004-006-----0
 62
     1
  6
CONTINUOUS
 10
134.036911
 20
43.900108
 40
1.750000
 50
180.000009
 51
269.999997
  0
ARC
  8
LC-004-006-----0
 62
     1
  6
CONTINUOUS
 10
255.536911
 20
43.900108
 40
1.750000
 50
269.999997
 51
0.000000
  0
ARC
  8
LC-004-006-----0
 62
     1
  6
CONTINUOUS
 10
255.536911
 20
125.495399
 40
1.750000
 50
0.000000
 51
90.000003
  0
ARC
  8
LC-004-006-----0
 62
     1
  6
CONTINUOUS
 10
407.446686
 20
82.245399
 40
40.000000
 50
297.000002
 51
242.999993
  0
LINE
  8
LC-003-002-----0
 62
     2
  6
DASHDOT
 10
356.817841
 20
84.745399
 11
382.450134
 21
84.745399
  0
LINE
  8
LC-006-012-----0
 62
     2
  6
DASHED
 10
362.703430
 20
87.045403
 11
376.820557
 21
87.045403
  0
LINE
  8
LC-006-012-----0
 62
     2
  6
DASHED
 10
362.447144
 20
82.445404
 11
376.447327
 21
82.445404
  0
LINE
  8
LC-003-002-----0
 62
     2
  6
DASHDOT
 10
200.952881
 20
84.745399
 11
188.024750
 21
84.745399
  0
LINE
  8
LC-003-002-----0
 62
     2
  6
DASHDOT
 10
194.786911
 20
91.265121
 11
194.786911
 21
77.072449
  0
CIRCLE
  8
LC-006-012-----0
 62
     2
  6
DASHED
 10
194.786911
 20
84.745399
 40
2.300000
  0
ENDSEC
  0
EOF
