  0
SECTION
  2
HEADER
  9
$LIMMIN
 10
84.386024
 20
-196.213104
  9
$LIMMAX
 10
543.920715
 20
-55.345589
  9
$EXTMIN
 10
84.386024
 20
-196.213104
  9
$EXTMAX
 10
543.920715
 20
-55.345589
  0
ENDSEC
  0
SECTION
  2
TABLES
  0
TABLE
  2
LTYPE
 70
     3
  0
LTYPE
  2
CONTINUOUS
 70
    64
  3
Ausgezogene Linie
 72
    65
 73
     0
 40
0.0
  0
LTYPE
  2
DASHED
 70
    64
  3
__ __ __ __ __ __ __ __ __ __ __ __ __ __ __
 72
    65
 73
     2
 40
0.75
 49
0.5
 49
-0.25
  0
LTYPE
  2
DASHDOT
 70
    64
  3
__ . __ . __ . __ . __ . __ . __ . __ . __ . __
 72
    65
 73
     4
 40
1.0
 49
0.5
 49
-0.25
 49
0.0
 49
-0.25
  0
ENDTAB
  0
TABLE
  2
LAYER
 70
     4
  0
LAYER
  2
LC-004-006-----0
 70
    64
 62
     7
  6
CONTINUOUS
  0
LAYER
  2
LC-003-002-----0
 70
    64
 62
     7
  6
CONTINUOUS
  0
LAYER
  2
LC-006-012-----0
 70
    64
 62
     7
  6
CONTINUOUS
  0
LAYER
  2
LC-007-004-----0
 70
    64
 62
     7
  6
CONTINUOUS
  0
ENDTAB
  0
TABLE
  2
STYLE
 70
     1
  0
STYLE
  2
TXT8
 70
    64
 40
0.0
 41
1.0
 50
0.0
 71
     0
 42
3.500000
  3
TXT8
  4

  0
ENDTAB
  0
ENDSEC
  0
SECTION
  2
BLOCKS
  0
ENDSEC
  0
SECTION
  2
ENTITIES
  0
LINE
  8
LC-003-002-----0
 62
     2
  6
DASHDOT
 10
390.221313
 20
-131.451218
 11
543.920715
 21
-131.451218
  0
LINE
  8
LC-003-002-----0
 62
     2
  6
DASHDOT
 10
466.524994
 20
-55.345589
 11
466.524994
 21
-196.213104
  0
CIRCLE
  8
LC-004-006-----0
 62
     1
  6
CONTINUOUS
 10
466.524994
 20
-131.451218
 40
40.000000
  0
ARC
  8
LC-004-006-----0
 62
     1
  6
CONTINUOUS
 10
466.524994
 20
-131.451218
 40
60.000000
 50
297.000002
 51
242.999993
  0
ARC
  8
LC-004-006-----0
 62
     1
  6
CONTINUOUS
 10
466.524994
 20
-131.451218
 40
41.000000
 50
297.000002
 51
242.999993
  0
LINE
  8
LC-004-006-----0
 62
     1
  6
CONTINUOUS
 10
485.138611
 20
-167.982483
 11
493.764435
 21
-184.911606
  0
LINE
  8
LC-004-006-----0
 62
     1
  6
CONTINUOUS
 10
447.911377
 20
-167.982483
 11
439.285553
 21
-184.911606
  0
LINE
  8
LC-003-002-----0
 62
     2
  6
DASHDOT
 10
84.386024
 20
-131.451218
 11
337.287628
 21
-131.451218
  0
LINE
  8
LC-004-006-----0
 62
     1
  6
CONTINUOUS
 10
134.286911
 20
-71.451210
 11
148.086914
 21
-71.451210
  0
LINE
  8
LC-004-006-----0
 62
     1
  6
CONTINUOUS
 10
134.286911
 20
-191.451218
 11
148.086914
 21
-191.451218
  0
LINE
  8
LC-004-006-----0
 62
     1
  6
CONTINUOUS
 10
132.286911
 20
-73.451210
 11
132.286911
 21
-189.451218
  0
LINE
  8
LC-004-006-----0
 62
     1
  6
CONTINUOUS
 10
297.286896
 20
-73.451210
 11
297.286896
 21
-189.451218
  0
LINE
  8
LC-004-006-----0
 62
     1
  6
CONTINUOUS
 10
90.951088
 20
-91.451210
 11
132.286911
 21
-91.451210
  0
LINE
  8
LC-004-006-----0
 62
     1
  6
CONTINUOUS
 10
90.951088
 20
-171.451218
 11
132.286911
 21
-171.451218
  0
LINE
  8
LC-007-004-----0
 62
     2
  6
CONTINUOUS
 10
90.951088
 20
-171.451218
 11
95.218376
 21
-158.696869
  0
LINE
  8
LC-007-004-----0
 62
     2
  6
CONTINUOUS
 10
95.218376
 20
-158.696869
 11
89.787277
 21
-140.914993
  0
LINE
  8
LC-007-004-----0
 62
     2
  6
CONTINUOUS
 10
89.787277
 20
-140.914993
 11
94.830444
 21
-118.836823
  0
LINE
  8
LC-007-004-----0
 62
     2
  6
CONTINUOUS
 10
94.830444
 20
-118.836823
 11
87.071732
 21
-103.071808
  0
LINE
  8
LC-007-004-----0
 62
     2
  6
CONTINUOUS
 10
87.071732
 20
-103.071808
 11
90.951088
 21
-91.451210
  0
LINE
  8
LC-007-004-----0
 62
     2
  6
CONTINUOUS
 10
331.530823
 20
-171.451218
 11
326.905457
 21
-156.107162
  0
LINE
  8
LC-007-004-----0
 62
     2
  6
CONTINUOUS
 10
326.905457
 20
-156.107162
 11
329.591156
 21
-138.337219
  0
LINE
  8
LC-007-004-----0
 62
     2
  6
CONTINUOUS
 10
329.591156
 20
-138.337219
 11
331.530823
 21
-131.451218
  0
LINE
  8
LC-007-004-----0
 62
     2
  6
CONTINUOUS
 10
331.530823
 20
-131.451218
 11
323.414032
 21
-112.821999
  0
LINE
  8
LC-007-004-----0
 62
     2
  6
CONTINUOUS
 10
323.414032
 20
-112.822006
 11
331.530823
 21
-91.451210
  0
LINE
  8
LC-006-012-----0
 62
     2
  6
DASHED
 10
132.286911
 20
-91.451210
 11
297.286896
 21
-91.451210
  0
LINE
  8
LC-004-006-----0
 62
     1
  6
CONTINUOUS
 10
297.286896
 20
-91.451210
 11
331.530823
 21
-91.451210
  0
LINE
  8
LC-006-012-----0
 62
     2
  6
DASHED
 10
132.286911
 20
-171.451218
 11
297.286896
 21
-171.451218
  0
LINE
  8
LC-004-006-----0
 62
     1
  6
CONTINUOUS
 10
297.286896
 20
-171.451218
 11
331.530823
 21
-171.451218
  0
LINE
  8
LC-004-006-----0
 62
     1
  6
CONTINUOUS
 10
277.286896
 20
-191.451218
 11
277.286896
 21
-71.451202
  0
LINE
  8
LC-004-006-----0
 62
     1
  6
CONTINUOUS
 10
152.286911
 20
-191.451218
 11
152.286911
 21
-71.451202
  0
LINE
  8
LC-004-006-----0
 62
     1
  6
CONTINUOUS
 10
281.486908
 20
-191.451218
 11
281.486908
 21
-71.451202
  0
LINE
  8
LC-004-006-----0
 62
     1
  6
CONTINUOUS
 10
148.086914
 20
-191.451218
 11
148.086914
 21
-71.451202
  0
LINE
  8
LC-004-006-----0
 62
     1
  6
CONTINUOUS
 10
152.286911
 20
-71.451210
 11
277.286896
 21
-71.451210
  0
LINE
  8
LC-004-006-----0
 62
     1
  6
CONTINUOUS
 10
281.486908
 20
-71.451210
 11
295.286896
 21
-71.451210
  0
LINE
  8
LC-004-006-----0
 62
     1
  6
CONTINUOUS
 10
281.486908
 20
-191.451218
 11
295.286896
 21
-191.451218
  0
LINE
  8
LC-004-006-----0
 62
     1
  6
CONTINUOUS
 10
152.286911
 20
-191.451218
 11
277.286896
 21
-191.451218
  0
LINE
  8
LC-004-006-----0
 62
     1
  6
CONTINUOUS
 10
148.086914
 20
-187.451218
 11
152.286911
 21
-187.451218
  0
LINE
  8
LC-004-006-----0
 62
     1
  6
CONTINUOUS
 10
148.086914
 20
-75.451210
 11
152.286911
 21
-75.451210
  0
LINE
  8
LC-004-006-----0
 62
     1
  6
CONTINUOUS
 10
277.286896
 20
-75.451210
 11
281.486908
 21
-75.451210
  0
LINE
  8
LC-004-006-----0
 62
     1
  6
CONTINUOUS
 10
277.286896
 20
-187.451218
 11
281.486908
 21
-187.451218
  0
ARC
  8
LC-004-006-----0
 62
     1
  6
CONTINUOUS
 10
134.286911
 20
-73.451210
 40
2.000000
 50
90.000003
 51
180.000009
  0
ARC
  8
LC-004-006-----0
 62
     1
  6
CONTINUOUS
 10
134.286911
 20
-189.451218
 40
2.000000
 50
180.000009
 51
269.999997
  0
ARC
  8
LC-004-006-----0
 62
     1
  6
CONTINUOUS
 10
295.286896
 20
-189.451218
 40
2.000000
 50
269.999997
 51
0.000000
  0
ARC
  8
LC-004-006-----0
 62
     1
  6
CONTINUOUS
 10
295.286896
 20
-73.451210
 40
2.000000
 50
0.000000
 51
90.000003
  0
LINE
  8
LC-003-002-----0
 62
     2
  6
DASHDOT
 10
402.663086
 20
-128.951218
 11
431.174713
 21
-128.951218
  0
LINE
  8
LC-006-012-----0
 62
     2
  6
DASHED
 10
406.717316
 20
-126.651215
 11
425.806946
 21
-126.651215
  0
LINE
  8
LC-006-012-----0
 62
     2
  6
DASHED
 10
406.525330
 20
-131.251205
 11
425.525482
 21
-131.251205
  0
ARC
  8
LC-004-006-----0
 62
     1
  6
CONTINUOUS
 10
466.524994
 20
-131.451218
 40
52.000000
 50
297.000002
 51
242.999993
  0
LINE
  8
LC-003-002-----0
 62
     2
  6
DASHDOT
 10
222.400085
 20
-128.951218
 11
208.240585
 21
-128.951218
  0
LINE
  8
LC-003-002-----0
 62
     2
  6
DASHDOT
 10
214.786911
 20
-122.627296
 11
214.786911
 21
-136.032562
  0
CIRCLE
  8
LC-006-012-----0
 62
     2
  6
DASHED
 10
214.786911
 20
-128.951218
 40
2.300000
  0
ENDSEC
  0
EOF
