  0
SECTION
  2
HEADER
  9
$LIMMIN
 10
56.146488
 20
183.266968
  9
$LIMMAX
 10
242.191513
 20
253.051315
  9
$EXTMIN
 10
56.146488
 20
183.266968
  9
$EXTMAX
 10
242.191513
 20
253.051315
  0
ENDSEC
  0
SECTION
  2
TABLES
  0
TABLE
  2
LTYPE
 70
     3
  0
LTYPE
  2
CONTINUOUS
 70
    64
  3
Ausgezogene Linie
 72
    65
 73
     0
 40
0.0
  0
LTYPE
  2
DASHED
 70
    64
  3
__ __ __ __ __ __ __ __ __ __ __ __ __ __ __
 72
    65
 73
     2
 40
0.75
 49
0.5
 49
-0.25
  0
LTYPE
  2
DASHDOT
 70
    64
  3
__ . __ . __ . __ . __ . __ . __ . __ . __ . __
 72
    65
 73
     4
 40
1.0
 49
0.5
 49
-0.25
 49
0.0
 49
-0.25
  0
ENDTAB
  0
TABLE
  2
LAYER
 70
     5
  0
LAYER
  2
LC-INFO-1-1-MM-A2-0
 70
    64
 62
     7
  6
CONTINUOUS
  0
LAYER
  2
LC-003-002-----0
 70
    64
 62
     7
  6
CONTINUOUS
  0
LAYER
  2
LC-005-002-RND-0
 70
    64
 62
     7
  6
CONTINUOUS
  0
LAYER
  2
LC-004-006-----0
 70
    64
 62
     7
  6
CONTINUOUS
  0
LAYER
  2
LC-006-012-----0
 70
    64
 62
     7
  6
CONTINUOUS
  0
ENDTAB
  0
TABLE
  2
STYLE
 70
     1
  0
STYLE
  2
TXT8
 70
    64
 40
0.0
 41
1.0
 50
0.0
 71
     0
 42
3.500000
  3
TXT8
  4

  0
ENDTAB
  0
ENDSEC
  0
SECTION
  2
BLOCKS
  0
ENDSEC
  0
SECTION
  2
ENTITIES
  0
LINE
  8
LC-006-012-----0
 62
     2
  6
CONTINUOUS
 10
108.158943
 20
228.767761
 11
110.596535
 21
228.767761
  0
LINE
  8
LC-006-012-----0
 62
     2
  6
CONTINUOUS
 10
110.596535
 20
228.767761
 11
110.596535
 21
229.517761
  0
LINE
  8
LC-006-012-----0
 62
     2
  6
CONTINUOUS
 10
110.596535
 20
229.517761
 11
111.346535
 21
229.517761
  0
LINE
  8
LC-006-012-----0
 62
     2
  6
CONTINUOUS
 10
111.346535
 20
229.517761
 11
111.346535
 21
228.767761
  0
LINE
  8
LC-006-012-----0
 62
     2
  6
CONTINUOUS
 10
111.346535
 20
228.767761
 11
115.596535
 21
228.767761
  0
LINE
  8
LC-006-012-----0
 62
     2
  6
CONTINUOUS
 10
115.596535
 20
228.767761
 11
115.596535
 21
231.267761
  0
LINE
  8
LC-006-012-----0
 62
     2
  6
CONTINUOUS
 10
115.596535
 20
231.267761
 11
108.846535
 21
231.267761
  0
LINE
  8
LC-006-012-----0
 62
     2
  6
CONTINUOUS
 10
108.846535
 20
231.267761
 11
108.846535
 21
230.517761
  0
LINE
  8
LC-006-012-----0
 62
     2
  6
CONTINUOUS
 10
108.846535
 20
230.517761
 11
107.846535
 21
230.517761
  0
LINE
  8
LC-006-012-----0
 62
     2
  6
CONTINUOUS
 10
107.846535
 20
230.517761
 11
107.846535
 21
231.267761
  0
LINE
  8
LC-006-012-----0
 62
     2
  6
CONTINUOUS
 10
107.846535
 20
231.267761
 11
81.846535
 21
231.267761
  0
LINE
  8
LC-006-012-----0
 62
     2
  6
CONTINUOUS
 10
81.846535
 20
231.267761
 11
81.846535
 21
230.517761
  0
LINE
  8
LC-006-012-----0
 62
     2
  6
CONTINUOUS
 10
81.846535
 20
230.517761
 11
80.846535
 21
230.517761
  0
LINE
  8
LC-006-012-----0
 62
     2
  6
CONTINUOUS
 10
80.846535
 20
230.517761
 11
80.846535
 21
231.267761
  0
LINE
  8
LC-006-012-----0
 62
     2
  6
CONTINUOUS
 10
80.846535
 20
231.267761
 11
74.096535
 21
231.267761
  0
LINE
  8
LC-006-012-----0
 62
     2
  6
CONTINUOUS
 10
74.096535
 20
231.267761
 11
74.096535
 21
228.767761
  0
LINE
  8
LC-006-012-----0
 62
     2
  6
CONTINUOUS
 10
74.096535
 20
228.767761
 11
78.346535
 21
228.767761
  0
LINE
  8
LC-006-012-----0
 62
     2
  6
CONTINUOUS
 10
78.346535
 20
228.767761
 11
78.346535
 21
229.517761
  0
LINE
  8
LC-006-012-----0
 62
     2
  6
CONTINUOUS
 10
78.346535
 20
229.517761
 11
79.096535
 21
229.517761
  0
LINE
  8
LC-006-012-----0
 62
     2
  6
CONTINUOUS
 10
79.096535
 20
229.517761
 11
79.096535
 21
228.767761
  0
LINE
  8
LC-006-012-----0
 62
     2
  6
CONTINUOUS
 10
79.096535
 20
228.767761
 11
81.534134
 21
228.767761
  0
LINE
  8
LC-006-012-----0
 62
     2
  6
CONTINUOUS
 10
83.158943
 20
228.767761
 11
106.534134
 21
228.767761
  0
LINE
  8
LC-006-012-----0
 62
     2
  6
CONTINUOUS
 10
115.596535
 20
230.178680
 11
114.507454
 21
231.267761
  0
LINE
  8
LC-006-012-----0
 62
     2
  6
CONTINUOUS
 10
114.886131
 20
228.767761
 11
112.386131
 21
231.267761
  0
LINE
  8
LC-006-012-----0
 62
     2
  6
CONTINUOUS
 10
112.764809
 20
228.767761
 11
110.264809
 21
231.267761
  0
LINE
  8
LC-006-012-----0
 62
     2
  6
CONTINUOUS
 10
110.596535
 20
228.814713
 11
108.846535
 21
230.564713
  0
LINE
  8
LC-006-012-----0
 62
     2
  6
CONTINUOUS
 10
108.522171
 20
228.767761
 11
106.022171
 21
231.267761
  0
LINE
  8
LC-006-012-----0
 62
     2
  6
CONTINUOUS
 10
106.400848
 20
228.767761
 11
103.900848
 21
231.267761
  0
LINE
  8
LC-006-012-----0
 62
     2
  6
CONTINUOUS
 10
104.279526
 20
228.767761
 11
101.779526
 21
231.267761
  0
LINE
  8
LC-006-012-----0
 62
     2
  6
CONTINUOUS
 10
102.158211
 20
228.767761
 11
99.658211
 21
231.267761
  0
LINE
  8
LC-006-012-----0
 62
     2
  6
CONTINUOUS
 10
100.036888
 20
228.767761
 11
97.536888
 21
231.267761
  0
LINE
  8
LC-006-012-----0
 62
     2
  6
CONTINUOUS
 10
97.915565
 20
228.767761
 11
95.415565
 21
231.267761
  0
LINE
  8
LC-006-012-----0
 62
     2
  6
CONTINUOUS
 10
95.794250
 20
228.767761
 11
93.294250
 21
231.267761
  0
LINE
  8
LC-006-012-----0
 62
     2
  6
CONTINUOUS
 10
93.672928
 20
228.767761
 11
91.172928
 21
231.267761
  0
LINE
  8
LC-006-012-----0
 62
     2
  6
CONTINUOUS
 10
91.551605
 20
228.767761
 11
89.051605
 21
231.267761
  0
LINE
  8
LC-006-012-----0
 62
     2
  6
CONTINUOUS
 10
89.430290
 20
228.767761
 11
86.930290
 21
231.267761
  0
LINE
  8
LC-006-012-----0
 62
     2
  6
CONTINUOUS
 10
87.308968
 20
228.767761
 11
84.808968
 21
231.267761
  0
LINE
  8
LC-006-012-----0
 62
     2
  6
CONTINUOUS
 10
85.187645
 20
228.767761
 11
82.687645
 21
231.267761
  0
LINE
  8
LC-006-012-----0
 62
     2
  6
CONTINUOUS
 10
82.891258
 20
228.942841
 11
81.316322
 21
230.517761
  0
LINE
  8
LC-006-012-----0
 62
     2
  6
CONTINUOUS
 10
80.846535
 20
230.987549
 11
80.566322
 21
231.267761
  0
LINE
  8
LC-006-012-----0
 62
     2
  6
CONTINUOUS
 10
80.945007
 20
228.767761
 11
78.445007
 21
231.267761
  0
LINE
  8
LC-006-012-----0
 62
     2
  6
CONTINUOUS
 10
78.346535
 20
229.244919
 11
76.323685
 21
231.267761
  0
LINE
  8
LC-006-012-----0
 62
     2
  6
CONTINUOUS
 10
76.702362
 20
228.767761
 11
74.202362
 21
231.267761
  0
LINE
  8
LC-006-012-----0
 62
     2
  6
CONTINUOUS
 10
74.581047
 20
228.767761
 11
74.096535
 21
229.252274
  0
LINE
  8
LC-006-012-----0
 62
     2
  6
CONTINUOUS
 10
117.245903
 20
248.767761
 11
117.287521
 21
248.809387
  0
LINE
  8
LC-006-012-----0
 62
     2
  6
CONTINUOUS
 10
115.124580
 20
248.767761
 11
115.624580
 21
249.267761
  0
LINE
  8
LC-006-012-----0
 62
     2
  6
CONTINUOUS
 10
110.903259
 20
246.667770
 11
111.646538
 21
247.411041
  0
LINE
  8
LC-006-012-----0
 62
     2
  6
CONTINUOUS
 10
113.003265
 20
248.767761
 11
113.503265
 21
249.267761
  0
LINE
  8
LC-006-012-----0
 62
     2
  6
CONTINUOUS
 10
109.346535
 20
247.232361
 11
111.381943
 21
249.267761
  0
LINE
  8
LC-006-012-----0
 62
     2
  6
CONTINUOUS
 10
115.473824
 20
234.267761
 11
115.596535
 21
234.390472
  0
LINE
  8
LC-006-012-----0
 62
     2
  6
CONTINUOUS
 10
116.223824
 20
235.017761
 11
117.346535
 21
236.140472
  0
LINE
  8
LC-006-012-----0
 62
     2
  6
CONTINUOUS
 10
113.352509
 20
234.267761
 11
117.346535
 21
238.261795
  0
LINE
  8
LC-006-012-----0
 62
     2
  6
CONTINUOUS
 10
111.231186
 20
234.267761
 11
115.731186
 21
238.767761
  0
LINE
  8
LC-006-012-----0
 62
     2
  6
CONTINUOUS
 10
109.109863
 20
234.267761
 11
113.609863
 21
238.767761
  0
LINE
  8
LC-006-012-----0
 62
     2
  6
CONTINUOUS
 10
106.988541
 20
234.267761
 11
111.646538
 21
238.925751
  0
LINE
  8
LC-006-012-----0
 62
     2
  6
CONTINUOUS
 10
104.867226
 20
234.267761
 11
108.596535
 21
237.997070
  0
LINE
  8
LC-006-012-----0
 62
     2
  6
CONTINUOUS
 10
109.346535
 20
238.747070
 11
111.467224
 21
240.867767
  0
LINE
  8
LC-006-012-----0
 62
     2
  6
CONTINUOUS
 10
102.745903
 20
234.267761
 11
106.745903
 21
238.267761
  0
LINE
  8
LC-006-012-----0
 62
     2
  6
CONTINUOUS
 10
100.624580
 20
234.267761
 11
104.624580
 21
238.267761
  0
LINE
  8
LC-006-012-----0
 62
     2
  6
CONTINUOUS
 10
98.503265
 20
234.267761
 11
102.503265
 21
238.267761
  0
LINE
  8
LC-006-012-----0
 62
     2
  6
CONTINUOUS
 10
96.381943
 20
234.267761
 11
100.381943
 21
238.267761
  0
LINE
  8
LC-006-012-----0
 62
     2
  6
CONTINUOUS
 10
94.260620
 20
234.267761
 11
98.260620
 21
238.267761
  0
LINE
  8
LC-006-012-----0
 62
     2
  6
CONTINUOUS
 10
92.139305
 20
234.267761
 11
96.139305
 21
238.267761
  0
LINE
  8
LC-006-012-----0
 62
     2
  6
CONTINUOUS
 10
90.017982
 20
234.267761
 11
94.017982
 21
238.267761
  0
LINE
  8
LC-006-012-----0
 62
     2
  6
CONTINUOUS
 10
87.896660
 20
234.267761
 11
91.896660
 21
238.267761
  0
LINE
  8
LC-006-012-----0
 62
     2
  6
CONTINUOUS
 10
85.775337
 20
234.267761
 11
89.775337
 21
238.267761
  0
LINE
  8
LC-006-012-----0
 62
     2
  6
CONTINUOUS
 10
83.654022
 20
234.267761
 11
87.654022
 21
238.267761
  0
LINE
  8
LC-006-012-----0
 62
     2
  6
CONTINUOUS
 10
81.532700
 20
234.267761
 11
85.532700
 21
238.267761
  0
LINE
  8
LC-006-012-----0
 62
     2
  6
CONTINUOUS
 10
79.411377
 20
234.267761
 11
83.411377
 21
238.267761
  0
LINE
  8
LC-006-012-----0
 62
     2
  6
CONTINUOUS
 10
77.290062
 20
234.267761
 11
81.290062
 21
238.267761
  0
LINE
  8
LC-006-012-----0
 62
     2
  6
CONTINUOUS
 10
75.168739
 20
234.267761
 11
79.168739
 21
238.267761
  0
LINE
  8
LC-006-012-----0
 62
     2
  6
CONTINUOUS
 10
73.047417
 20
234.267761
 11
73.346535
 21
234.566879
  0
LINE
  8
LC-006-012-----0
 62
     2
  6
CONTINUOUS
 10
73.797417
 20
235.017761
 11
77.047417
 21
238.267761
  0
LINE
  8
LC-006-012-----0
 62
     2
  6
CONTINUOUS
 10
72.346535
 20
235.688202
 11
74.926102
 21
238.267761
  0
LINE
  8
LC-006-012-----0
 62
     2
  6
CONTINUOUS
 10
72.475983
 20
237.938965
 11
72.675331
 21
238.138321
  0
LINE
  8
LC-005-002-RND-0
 62
     2
  6
DASHDOT
 10
56.146488
 20
218.267761
 11
134.635773
 21
218.267761
  0
LINE
  8
LC-003-002-----0
 62
     1
  6
CONTINUOUS
 10
73.096535
 20
238.267761
 11
108.596535
 21
238.267761
  0
LINE
  8
LC-003-002-----0
 62
     1
  6
CONTINUOUS
 10
73.096535
 20
198.267761
 11
108.596535
 21
198.267761
  0
LINE
  8
LC-003-002-----0
 62
     1
  6
CONTINUOUS
 10
110.096535
 20
249.267761
 11
116.596535
 21
249.267761
  0
LINE
  8
LC-003-002-----0
 62
     1
  6
CONTINUOUS
 10
110.096535
 20
187.267761
 11
116.596535
 21
187.267761
  0
LINE
  8
LC-003-002-----0
 62
     1
  6
CONTINUOUS
 10
72.346535
 20
237.517761
 11
72.346535
 21
226.267761
  0
LINE
  8
LC-003-002-----0
 62
     1
  6
CONTINUOUS
 10
117.346535
 20
248.517761
 11
117.346535
 21
226.267761
  0
LINE
  8
LC-003-002-----0
 62
     1
  6
CONTINUOUS
 10
109.346535
 20
248.517761
 11
109.346535
 21
237.517761
  0
ARC
  8
LC-003-002-----0
 62
     1
  6
CONTINUOUS
 10
73.096535
 20
199.017761
 40
0.750000
 50
180.000009
 51
269.999997
  0
ARC
  8
LC-003-002-----0
 62
     1
  6
CONTINUOUS
 10
73.096535
 20
237.517761
 40
0.750000
 50
90.000003
 51
180.000009
  0
ARC
  8
LC-003-002-----0
 62
     1
  6
CONTINUOUS
 10
110.096535
 20
248.517761
 40
0.750000
 50
90.000003
 51
180.000009
  0
ARC
  8
LC-003-002-----0
 62
     1
  6
CONTINUOUS
 10
116.596535
 20
248.517761
 40
0.750000
 50
0.000000
 51
90.000003
  0
ARC
  8
LC-003-002-----0
 62
     1
  6
CONTINUOUS
 10
110.096535
 20
188.017761
 40
0.750000
 50
180.000009
 51
269.999997
  0
ARC
  8
LC-003-002-----0
 62
     1
  6
CONTINUOUS
 10
116.596535
 20
188.017761
 40
0.750000
 50
269.999997
 51
0.000000
  0
LINE
  8
LC-003-002-----0
 62
     1
  6
CONTINUOUS
 10
108.596535
 20
238.267761
 11
108.596535
 21
237.517761
  0
LINE
  8
LC-003-002-----0
 62
     1
  6
CONTINUOUS
 10
108.596535
 20
237.517761
 11
109.346535
 21
237.517761
  0
LINE
  8
LC-003-002-----0
 62
     1
  6
CONTINUOUS
 10
108.596535
 20
199.017761
 11
109.346535
 21
199.017761
  0
LINE
  8
LC-003-002-----0
 62
     1
  6
CONTINUOUS
 10
58.552799
 20
226.267761
 11
72.346535
 21
226.267761
  0
LINE
  8
LC-003-002-----0
 62
     1
  6
CONTINUOUS
 10
58.405949
 20
210.267761
 11
72.346535
 21
210.267761
  0
LINE
  8
LC-006-012-----0
 62
     2
  6
CONTINUOUS
 10
58.405949
 20
210.267761
 11
58.879150
 21
213.622711
  0
LINE
  8
LC-006-012-----0
 62
     2
  6
CONTINUOUS
 10
58.879150
 20
213.622711
 11
58.318043
 21
222.234360
  0
LINE
  8
LC-006-012-----0
 62
     2
  6
CONTINUOUS
 10
58.318043
 20
222.234360
 11
58.552799
 21
226.267761
  0
LINE
  8
LC-006-012-----0
 62
     2
  6
CONTINUOUS
 10
132.315720
 20
210.267761
 11
132.653687
 21
213.972412
  0
LINE
  8
LC-006-012-----0
 62
     2
  6
CONTINUOUS
 10
132.653687
 20
213.972412
 11
131.706360
 21
221.884659
  0
LINE
  8
LC-006-012-----0
 62
     2
  6
CONTINUOUS
 10
131.706360
 20
221.884659
 11
131.759323
 21
226.267761
  0
LINE
  8
LC-003-002-----0
 62
     1
  6
CONTINUOUS
 10
72.346535
 20
226.267761
 11
117.346535
 21
226.267761
  0
LINE
  8
LC-003-002-----0
 62
     1
  6
CONTINUOUS
 10
117.346535
 20
226.267761
 11
131.759323
 21
226.267761
  0
LINE
  8
LC-004-006-----0
 62
     2
  6
DASHED
 10
72.346535
 20
210.267761
 11
117.346535
 21
210.267761
  0
LINE
  8
LC-003-002-----0
 62
     1
  6
CONTINUOUS
 10
117.346535
 20
210.267761
 11
132.315720
 21
210.267761
  0
LINE
  8
LC-005-002-RND-0
 62
     2
  6
DASHDOT
 10
171.527161
 20
218.267761
 11
242.191513
 21
218.267761
  0
LINE
  8
LC-005-002-RND-0
 62
     2
  6
DASHDOT
 10
206.518799
 20
253.051315
 11
206.518799
 21
183.266968
  0
CIRCLE
  8
LC-003-002-----0
 62
     1
  6
CONTINUOUS
 10
206.518799
 20
218.267761
 40
8.000000
  0
ARC
  8
LC-003-002-----0
 62
     1
  6
CONTINUOUS
 10
206.518799
 20
218.267761
 40
31.000000
 50
171.249317
 51
188.750683
  0
CIRCLE
  8
LC-003-002-----0
 62
     1
  6
CONTINUOUS
 10
206.518799
 20
218.267761
 40
20.000000
  0
CIRCLE
  8
LC-005-002-RND-0
 62
     2
  6
DASHDOT
 10
206.518799
 20
218.267761
 40
25.500000
  0
CIRCLE
  8
LC-004-006-----0
 62
     2
  6
DASHED
 10
206.518799
 20
243.767761
 40
5.000000
  0
CIRCLE
  8
LC-003-002-----0
 62
     1
  6
CONTINUOUS
 10
206.518799
 20
243.767761
 40
2.900000
  0
CIRCLE
  8
LC-003-002-----0
 62
     1
  6
CONTINUOUS
 10
181.018799
 20
218.267761
 40
2.900000
  0
CIRCLE
  8
LC-004-006-----0
 62
     2
  6
DASHED
 10
181.018799
 20
218.267761
 40
5.000000
  0
CIRCLE
  8
LC-003-002-----0
 62
     1
  6
CONTINUOUS
 10
206.518799
 20
192.767761
 40
2.900000
  0
CIRCLE
  8
LC-004-006-----0
 62
     2
  6
DASHED
 10
206.518799
 20
192.767761
 40
5.000000
  0
CIRCLE
  8
LC-004-006-----0
 62
     2
  6
DASHED
 10
232.018799
 20
218.267761
 40
5.000000
  0
CIRCLE
  8
LC-003-002-----0
 62
     1
  6
CONTINUOUS
 10
232.018799
 20
218.267761
 40
2.900000
  0
LINE
  8
LC-005-002-RND-0
 62
     2
  6
DASHDOT
 10
120.848969
 20
243.767761
 11
106.217186
 21
243.767761
  0
LINE
  8
LC-003-002-----0
 62
     1
  6
CONTINUOUS
 10
117.346535
 20
248.767761
 11
111.646538
 21
248.767761
  0
LINE
  8
LC-003-002-----0
 62
     1
  6
CONTINUOUS
 10
111.646538
 20
246.667770
 11
109.346535
 21
246.667770
  0
LINE
  8
LC-003-002-----0
 62
     1
  6
CONTINUOUS
 10
111.646538
 20
248.767761
 11
111.646538
 21
238.767761
  0
LINE
  8
LC-003-002-----0
 62
     1
  6
CONTINUOUS
 10
117.346535
 20
238.767761
 11
111.646538
 21
238.767761
  0
LINE
  8
LC-003-002-----0
 62
     1
  6
CONTINUOUS
 10
111.646538
 20
240.867767
 11
109.346535
 21
240.867767
  0
LINE
  8
LC-005-002-RND-0
 62
     2
  6
DASHDOT
 10
120.848969
 20
192.767761
 11
106.217186
 21
192.767761
  0
LINE
  8
LC-004-006-----0
 62
     2
  6
DASHED
 10
117.346535
 20
187.767761
 11
111.646538
 21
187.767761
  0
LINE
  8
LC-004-006-----0
 62
     2
  6
DASHED
 10
111.646538
 20
189.867767
 11
109.346535
 21
189.867767
  0
LINE
  8
LC-004-006-----0
 62
     2
  6
DASHED
 10
111.646538
 20
187.767761
 11
111.646538
 21
197.767761
  0
LINE
  8
LC-004-006-----0
 62
     2
  6
DASHED
 10
117.346535
 20
197.767761
 11
111.646538
 21
197.767761
  0
LINE
  8
LC-004-006-----0
 62
     2
  6
DASHED
 10
111.646538
 20
195.667770
 11
109.346535
 21
195.667770
  0
LINE
  8
LC-003-002-----0
 62
     1
  6
CONTINUOUS
 10
117.346535
 20
218.267761
 11
117.346535
 21
188.017761
  0
LINE
  8
LC-003-002-----0
 62
     1
  6
CONTINUOUS
 10
72.346535
 20
218.267761
 11
72.346535
 21
199.017761
  0
LINE
  8
LC-003-002-----0
 62
     1
  6
CONTINUOUS
 10
108.596535
 20
218.267761
 11
108.596535
 21
198.267761
  0
LINE
  8
LC-003-002-----0
 62
     1
  6
CONTINUOUS
 10
109.346535
 20
218.267761
 11
109.346535
 21
188.017761
  0
CIRCLE
  8
LC-003-002-----0
 62
     1
  6
CONTINUOUS
 10
92.346535
 20
227.517761
 40
1.250000
  0
ARC
  8
LC-003-002-----0
 62
     1
  6
CONTINUOUS
 10
206.518799
 20
218.267761
 40
31.000000
 50
351.249321
 51
8.750679
  0
LINE
  8
LC-003-002-----0
 62
     1
  6
CONTINUOUS
 10
211.234985
 20
187.628616
 11
237.157944
 21
213.551575
  0
LINE
  8
LC-003-002-----0
 62
     1
  6
CONTINUOUS
 10
175.879639
 20
222.983948
 11
201.802597
 21
248.906921
  0
LINE
  8
LC-003-002-----0
 62
     1
  6
CONTINUOUS
 10
201.802597
 20
187.628616
 11
175.879639
 21
213.551575
  0
LINE
  8
LC-003-002-----0
 62
     1
  6
CONTINUOUS
 10
237.157944
 20
222.983948
 11
211.234985
 21
248.906921
  0
ARC
  8
LC-003-002-----0
 62
     1
  6
CONTINUOUS
 10
206.518799
 20
218.267761
 40
31.000000
 50
81.249321
 51
98.750677
  0
ARC
  8
LC-003-002-----0
 62
     1
  6
CONTINUOUS
 10
206.518799
 20
218.267761
 40
31.000000
 50
261.249323
 51
278.750679
  0
CIRCLE
  8
LC-003-002-----0
 62
     1
  6
CONTINUOUS
 10
206.518799
 20
218.267761
 40
16.000000
  0
CIRCLE
  8
LC-003-002-----0
 62
     1
  6
CONTINUOUS
 10
206.518799
 20
218.267761
 40
18.000000
  0
CIRCLE
  8
LC-003-002-----0
 62
     1
  6
CONTINUOUS
 10
206.518799
 20
218.267761
 40
14.000000
  0
LINE
  8
LC-003-002-----0
 62
     1
  6
CONTINUOUS
 10
74.096535
 20
228.767761
 11
78.346535
 21
228.767761
  0
CIRCLE
  8
LC-003-002-----0
 62
     1
  6
CONTINUOUS
 10
94.846535
 20
227.517761
 40
1.250000
  0
CIRCLE
  8
LC-003-002-----0
 62
     1
  6
CONTINUOUS
 10
97.346535
 20
227.517761
 40
1.250000
  0
CIRCLE
  8
LC-003-002-----0
 62
     1
  6
CONTINUOUS
 10
99.846535
 20
227.517761
 40
1.250000
  0
CIRCLE
  8
LC-003-002-----0
 62
     1
  6
CONTINUOUS
 10
102.346535
 20
227.517761
 40
1.250000
  0
CIRCLE
  8
LC-003-002-----0
 62
     1
  6
CONTINUOUS
 10
104.846535
 20
227.517761
 40
1.250000
  0
CIRCLE
  8
LC-003-002-----0
 62
     1
  6
CONTINUOUS
 10
107.346535
 20
227.817764
 40
1.250000
  0
LINE
  8
LC-003-002-----0
 62
     1
  6
CONTINUOUS
 10
108.158943
 20
228.767761
 11
110.596535
 21
228.767761
  0
CIRCLE
  8
LC-003-002-----0
 62
     1
  6
CONTINUOUS
 10
89.846535
 20
227.517761
 40
1.250000
  0
CIRCLE
  8
LC-003-002-----0
 62
     1
  6
CONTINUOUS
 10
87.346535
 20
227.517761
 40
1.250000
  0
CIRCLE
  8
LC-003-002-----0
 62
     1
  6
CONTINUOUS
 10
84.846535
 20
227.517761
 40
1.250000
  0
CIRCLE
  8
LC-003-002-----0
 62
     1
  6
CONTINUOUS
 10
82.346535
 20
227.817764
 40
1.250000
  0
LINE
  8
LC-003-002-----0
 62
     1
  6
CONTINUOUS
 10
83.158943
 20
228.767761
 11
106.534134
 21
228.767761
  0
LINE
  8
LC-003-002-----0
 62
     1
  6
CONTINUOUS
 10
74.096535
 20
231.267761
 11
80.846535
 21
231.267761
  0
LINE
  8
LC-003-002-----0
 62
     1
  6
CONTINUOUS
 10
107.846535
 20
234.267761
 11
107.846535
 21
230.517761
  0
LINE
  8
LC-003-002-----0
 62
     1
  6
CONTINUOUS
 10
72.346535
 20
234.267761
 11
73.346535
 21
234.267761
  0
CIRCLE
  8
LC-003-002-----0
 62
     1
  6
CONTINUOUS
 10
94.846535
 20
232.767761
 40
1.500000
  0
CIRCLE
  8
LC-003-002-----0
 62
     1
  6
CONTINUOUS
 10
98.846535
 20
232.767761
 40
1.500000
  0
CIRCLE
  8
LC-003-002-----0
 62
     1
  6
CONTINUOUS
 10
102.846535
 20
232.767761
 40
1.500000
  0
CIRCLE
  8
LC-003-002-----0
 62
     1
  6
CONTINUOUS
 10
90.846535
 20
232.767761
 40
1.500000
  0
CIRCLE
  8
LC-003-002-----0
 62
     1
  6
CONTINUOUS
 10
86.846535
 20
232.767761
 40
1.500000
  0
CIRCLE
  8
LC-003-002-----0
 62
     1
  6
CONTINUOUS
 10
111.846535
 20
232.767761
 40
1.500000
  0
CIRCLE
  8
LC-003-002-----0
 62
     1
  6
CONTINUOUS
 10
77.846535
 20
232.767761
 40
1.500000
  0
LINE
  8
LC-003-002-----0
 62
     1
  6
CONTINUOUS
 10
116.346535
 20
235.017761
 11
116.346535
 21
226.267761
  0
LINE
  8
LC-003-002-----0
 62
     1
  6
CONTINUOUS
 10
115.596535
 20
235.017761
 11
115.596535
 21
226.267761
  0
LINE
  8
LC-003-002-----0
 62
     1
  6
CONTINUOUS
 10
115.596535
 20
235.017761
 11
116.346535
 21
235.017761
  0
LINE
  8
LC-003-002-----0
 62
     1
  6
CONTINUOUS
 10
116.346535
 20
234.267761
 11
117.346535
 21
234.267761
  0
LINE
  8
LC-003-002-----0
 62
     1
  6
CONTINUOUS
 10
108.846535
 20
234.267761
 11
108.846535
 21
230.517761
  0
LINE
  8
LC-003-002-----0
 62
     1
  6
CONTINUOUS
 10
107.846535
 20
230.517761
 11
108.846535
 21
230.517761
  0
LINE
  8
LC-003-002-----0
 62
     1
  6
CONTINUOUS
 10
108.846535
 20
231.267761
 11
115.596535
 21
231.267761
  0
LINE
  8
LC-003-002-----0
 62
     1
  6
CONTINUOUS
 10
81.846535
 20
234.267761
 11
81.846535
 21
230.517761
  0
LINE
  8
LC-003-002-----0
 62
     1
  6
CONTINUOUS
 10
80.846535
 20
234.267761
 11
80.846535
 21
230.517761
  0
LINE
  8
LC-003-002-----0
 62
     1
  6
CONTINUOUS
 10
81.846535
 20
230.517761
 11
80.846535
 21
230.517761
  0
LINE
  8
LC-003-002-----0
 62
     1
  6
CONTINUOUS
 10
73.346535
 20
235.017761
 11
73.346535
 21
226.267761
  0
LINE
  8
LC-003-002-----0
 62
     1
  6
CONTINUOUS
 10
74.096535
 20
235.017761
 11
74.096535
 21
226.267761
  0
LINE
  8
LC-003-002-----0
 62
     1
  6
CONTINUOUS
 10
74.096535
 20
235.017761
 11
73.346535
 21
235.017761
  0
LINE
  8
LC-003-002-----0
 62
     1
  6
CONTINUOUS
 10
81.846535
 20
231.267761
 11
107.846535
 21
231.267761
  0
LINE
  8
LC-003-002-----0
 62
     1
  6
CONTINUOUS
 10
74.096535
 20
234.267761
 11
115.596535
 21
234.267761
  0
LINE
  8
LC-003-002-----0
 62
     1
  6
CONTINUOUS
 10
111.346535
 20
229.517761
 11
111.346535
 21
226.267761
  0
LINE
  8
LC-003-002-----0
 62
     1
  6
CONTINUOUS
 10
110.596535
 20
229.517761
 11
110.596535
 21
226.267761
  0
LINE
  8
LC-003-002-----0
 62
     1
  6
CONTINUOUS
 10
110.596535
 20
229.517761
 11
111.346535
 21
229.517761
  0
LINE
  8
LC-003-002-----0
 62
     1
  6
CONTINUOUS
 10
111.346535
 20
228.767761
 11
115.596535
 21
228.767761
  0
LINE
  8
LC-003-002-----0
 62
     1
  6
CONTINUOUS
 10
78.346535
 20
229.517761
 11
78.346535
 21
226.267761
  0
LINE
  8
LC-003-002-----0
 62
     1
  6
CONTINUOUS
 10
79.096535
 20
229.517761
 11
79.096535
 21
226.267761
  0
LINE
  8
LC-003-002-----0
 62
     1
  6
CONTINUOUS
 10
79.096535
 20
229.517761
 11
78.346535
 21
229.517761
  0
LINE
  8
LC-003-002-----0
 62
     1
  6
CONTINUOUS
 10
79.096535
 20
228.767761
 11
81.534134
 21
228.767761
  0
ENDSEC
  0
EOF
