  0
SECTION
  2
HEADER
  9
$LIMMIN
 10
279.700714
 20
22.902222
  9
$LIMMAX
 10
602.768982
 20
145.892487
  9
$EXTMIN
 10
279.700714
 20
22.902222
  9
$EXTMAX
 10
602.768982
 20
145.892487
  0
ENDSEC
  0
SECTION
  2
TABLES
  0
TABLE
  2
LTYPE
 70
     3
  0
LTYPE
  2
CONTINUOUS
 70
    64
  3
Ausgezogene Linie
 72
    65
 73
     0
 40
0.0
  0
LTYPE
  2
DASHED
 70
    64
  3
__ __ __ __ __ __ __ __ __ __ __ __ __ __ __
 72
    65
 73
     2
 40
0.75
 49
0.5
 49
-0.25
  0
LTYPE
  2
DASHDOT
 70
    64
  3
__ . __ . __ . __ . __ . __ . __ . __ . __ . __
 72
    65
 73
     4
 40
1.0
 49
0.5
 49
-0.25
 49
0.0
 49
-0.25
  0
ENDTAB
  0
TABLE
  2
LAYER
 70
     4
  0
LAYER
  2
LC-003-002-----0
 70
    64
 62
     7
  6
CONTINUOUS
  0
LAYER
  2
LC-005-002-RND-0
 70
    64
 62
     7
  6
CONTINUOUS
  0
LAYER
  2
LC-004-006-----0
 70
    64
 62
     7
  6
CONTINUOUS
  0
LAYER
  2
LC-006-012-----0
 70
    64
 62
     7
  6
CONTINUOUS
  0
ENDTAB
  0
TABLE
  2
STYLE
 70
     1
  0
STYLE
  2
TXT8
 70
    64
 40
0.0
 41
1.0
 50
0.0
 71
     0
 42
3.500000
  3
TXT8
  4

  0
ENDTAB
  0
ENDSEC
  0
SECTION
  2
BLOCKS
  0
ENDSEC
  0
SECTION
  2
ENTITIES
  0
LINE
  8
LC-005-002-RND-0
 62
     2
  6
DASHDOT
 10
279.700714
 20
84.808769
 11
444.366577
 21
84.808769
  0
LINE
  8
LC-003-002-----0
 62
     1
  6
CONTINUOUS
 10
309.414612
 20
122.308769
 11
361.414612
 21
122.308769
  0
LINE
  8
LC-003-002-----0
 62
     1
  6
CONTINUOUS
 10
309.414612
 20
47.308765
 11
361.414612
 21
47.308765
  0
LINE
  8
LC-003-002-----0
 62
     1
  6
CONTINUOUS
 10
404.914612
 20
141.308762
 11
417.914612
 21
141.308762
  0
LINE
  8
LC-003-002-----0
 62
     1
  6
CONTINUOUS
 10
417.914612
 20
28.308767
 11
404.914612
 21
28.308767
  0
LINE
  8
LC-003-002-----0
 62
     1
  6
CONTINUOUS
 10
307.414612
 20
120.308769
 11
307.414612
 21
49.308762
  0
LINE
  8
LC-003-002-----0
 62
     1
  6
CONTINUOUS
 10
419.414612
 20
139.808762
 11
419.414612
 21
29.808773
  0
LINE
  8
LC-003-002-----0
 62
     1
  6
CONTINUOUS
 10
403.414612
 20
29.808767
 11
403.414612
 21
139.808762
  0
LINE
  8
LC-003-002-----0
 62
     1
  6
CONTINUOUS
 10
401.414612
 20
122.308769
 11
401.414612
 21
47.308762
  0
LINE
  8
LC-003-002-----0
 62
     1
  6
CONTINUOUS
 10
401.414612
 20
48.808765
 11
403.414612
 21
48.808765
  0
LINE
  8
LC-003-002-----0
 62
     1
  6
CONTINUOUS
 10
401.414612
 20
120.808769
 11
403.414612
 21
120.808769
  0
ARC
  8
LC-003-002-----0
 62
     1
  6
CONTINUOUS
 10
309.414612
 20
120.308769
 40
2.000000
 50
90.000003
 51
180.000009
  0
ARC
  8
LC-003-002-----0
 62
     1
  6
CONTINUOUS
 10
309.414612
 20
49.308765
 40
2.000000
 50
180.000009
 51
269.999997
  0
LINE
  8
LC-003-002-----0
 62
     1
  6
CONTINUOUS
 10
403.414612
 20
29.808767
 11
404.914612
 21
28.308767
  0
LINE
  8
LC-003-002-----0
 62
     1
  6
CONTINUOUS
 10
403.414612
 20
139.808762
 11
404.914612
 21
141.308762
  0
LINE
  8
LC-003-002-----0
 62
     1
  6
CONTINUOUS
 10
404.914612
 20
28.308767
 11
404.914612
 21
141.308762
  0
LINE
  8
LC-003-002-----0
 62
     1
  6
CONTINUOUS
 10
417.914612
 20
141.308762
 11
419.414612
 21
139.808762
  0
LINE
  8
LC-003-002-----0
 62
     1
  6
CONTINUOUS
 10
419.414612
 20
29.808767
 11
417.914612
 21
28.308767
  0
LINE
  8
LC-003-002-----0
 62
     1
  6
CONTINUOUS
 10
417.914612
 20
141.308762
 11
417.914612
 21
28.308773
  0
LINE
  8
LC-005-002-RND-0
 62
     2
  6
DASHDOT
 10
363.414612
 20
45.308765
 11
363.414612
 21
124.308769
  0
LINE
  8
LC-003-002-----0
 62
     1
  6
CONTINUOUS
 10
365.414612
 20
47.308765
 11
365.414612
 21
122.308769
  0
LINE
  8
LC-003-002-----0
 62
     1
  6
CONTINUOUS
 10
361.414612
 20
47.308765
 11
361.414612
 21
122.308769
  0
ARC
  8
LC-003-002-----0
 62
     1
  6
CONTINUOUS
 10
363.414612
 20
47.308765
 40
2.000000
 50
0.000000
 51
180.000009
  0
ARC
  8
LC-003-002-----0
 62
     1
  6
CONTINUOUS
 10
363.414612
 20
122.308769
 40
2.000000
 50
180.000009
 51
0.000000
  0
LINE
  8
LC-003-002-----0
 62
     1
  6
CONTINUOUS
 10
365.414612
 20
47.308765
 11
401.414612
 21
47.308765
  0
LINE
  8
LC-003-002-----0
 62
     1
  6
CONTINUOUS
 10
365.414612
 20
122.308769
 11
401.414612
 21
122.308769
  0
LINE
  8
LC-003-002-----0
 62
     1
  6
CONTINUOUS
 10
284.811035
 20
108.308769
 11
307.414612
 21
108.308769
  0
LINE
  8
LC-003-002-----0
 62
     1
  6
CONTINUOUS
 10
283.369781
 20
61.308765
 11
307.414612
 21
61.308765
  0
LINE
  8
LC-006-012-----0
 62
     2
  6
CONTINUOUS
 10
283.369781
 20
61.308765
 11
284.504517
 21
68.473671
  0
LINE
  8
LC-006-012-----0
 62
     2
  6
CONTINUOUS
 10
284.504517
 20
68.473671
 11
283.928070
 21
81.656921
  0
LINE
  8
LC-006-012-----0
 62
     2
  6
CONTINUOUS
 10
283.928070
 20
81.656921
 11
285.273132
 21
95.999138
  0
LINE
  8
LC-006-012-----0
 62
     2
  6
CONTINUOUS
 10
285.273132
 20
95.999138
 11
284.811035
 21
108.308769
  0
LINE
  8
LC-006-012-----0
 62
     2
  6
CONTINUOUS
 10
440.034821
 20
61.308765
 11
441.100006
 21
67.894188
  0
LINE
  8
LC-006-012-----0
 62
     2
  6
CONTINUOUS
 10
441.100006
 20
67.894188
 11
440.331390
 21
80.787697
  0
LINE
  8
LC-006-012-----0
 62
     2
  6
CONTINUOUS
 10
440.331390
 20
80.787697
 11
441.100006
 21
97.592720
  0
LINE
  8
LC-006-012-----0
 62
     2
  6
CONTINUOUS
 10
441.100006
 20
97.592720
 11
440.111267
 21
108.308769
  0
LINE
  8
LC-004-006-----0
 62
     2
  6
DASHED
 10
307.414612
 20
108.308769
 11
419.414612
 21
108.308769
  0
LINE
  8
LC-003-002-----0
 62
     1
  6
CONTINUOUS
 10
419.414612
 20
108.308769
 11
440.111267
 21
108.308769
  0
LINE
  8
LC-004-006-----0
 62
     2
  6
DASHED
 10
307.414612
 20
61.308765
 11
419.414612
 21
61.308765
  0
LINE
  8
LC-003-002-----0
 62
     1
  6
CONTINUOUS
 10
419.414612
 20
61.308765
 11
440.034821
 21
61.308765
  0
LINE
  8
LC-005-002-RND-0
 62
     2
  6
DASHDOT
 10
481.453094
 20
84.808769
 11
602.768982
 21
84.808769
  0
LINE
  8
LC-005-002-RND-0
 62
     2
  6
DASHDOT
 10
541.828308
 20
145.892487
 11
541.828308
 21
22.902222
  0
ARC
  8
LC-003-002-----0
 62
     1
  6
CONTINUOUS
 10
541.828308
 20
84.808769
 40
23.500000
 50
84.673254
 51
95.326751
  0
CIRCLE
  8
LC-003-002-----0
 62
     1
  6
CONTINUOUS
 10
541.828308
 20
84.808769
 40
56.500000
  0
CIRCLE
  8
LC-003-002-----0
 62
     1
  6
CONTINUOUS
 10
541.828308
 20
84.808769
 40
37.500000
  0
CIRCLE
  8
LC-005-002-RND-0
 62
     2
  6
DASHDOT
 10
541.828308
 20
84.808769
 40
45.500000
  0
CIRCLE
  8
LC-003-002-----0
 62
     1
  6
CONTINUOUS
 10
541.828308
 20
84.808769
 40
55.000000
  0
CIRCLE
  8
LC-004-006-----0
 62
     2
  6
DASHED
 10
541.828308
 20
130.308762
 40
9.000000
  0
CIRCLE
  8
LC-003-002-----0
 62
     1
  6
CONTINUOUS
 10
541.828308
 20
130.308762
 40
5.500000
  0
CIRCLE
  8
LC-004-006-----0
 62
     2
  6
DASHED
 10
496.328278
 20
84.808769
 40
9.000000
  0
CIRCLE
  8
LC-003-002-----0
 62
     1
  6
CONTINUOUS
 10
496.328278
 20
84.808769
 40
5.500000
  0
CIRCLE
  8
LC-004-006-----0
 62
     2
  6
DASHED
 10
541.828308
 20
39.308765
 40
9.000000
  0
CIRCLE
  8
LC-003-002-----0
 62
     1
  6
CONTINUOUS
 10
541.828308
 20
39.308765
 40
5.500000
  0
CIRCLE
  8
LC-003-002-----0
 62
     1
  6
CONTINUOUS
 10
587.328308
 20
84.808769
 40
5.500000
  0
CIRCLE
  8
LC-004-006-----0
 62
     2
  6
DASHED
 10
587.328308
 20
84.808769
 40
9.000000
  0
LINE
  8
LC-005-002-RND-0
 62
     2
  6
DASHDOT
 10
424.218933
 20
130.308762
 11
396.984741
 21
130.308762
  0
LINE
  8
LC-004-006-----0
 62
     2
  6
DASHED
 10
408.414612
 20
135.808762
 11
403.414612
 21
135.808762
  0
LINE
  8
LC-004-006-----0
 62
     2
  6
DASHED
 10
419.414612
 20
139.308762
 11
408.414612
 21
139.308762
  0
LINE
  8
LC-004-006-----0
 62
     2
  6
DASHED
 10
408.414612
 20
139.308762
 11
408.414612
 21
121.308777
  0
LINE
  8
LC-004-006-----0
 62
     2
  6
DASHED
 10
419.414612
 20
121.308769
 11
408.414612
 21
121.308769
  0
LINE
  8
LC-004-006-----0
 62
     2
  6
DASHED
 10
408.414612
 20
124.808769
 11
403.414612
 21
124.808769
  0
LINE
  8
LC-005-002-RND-0
 62
     2
  6
DASHDOT
 10
424.218933
 20
39.308765
 11
396.984741
 21
39.308765
  0
LINE
  8
LC-004-006-----0
 62
     2
  6
DASHED
 10
408.414612
 20
33.808765
 11
403.414612
 21
33.808765
  0
LINE
  8
LC-004-006-----0
 62
     2
  6
DASHED
 10
419.414612
 20
30.308767
 11
408.414612
 21
30.308767
  0
LINE
  8
LC-004-006-----0
 62
     2
  6
DASHED
 10
408.414612
 20
30.308767
 11
408.414612
 21
48.308765
  0
LINE
  8
LC-004-006-----0
 62
     2
  6
DASHED
 10
419.414612
 20
48.308765
 11
408.414612
 21
48.308765
  0
LINE
  8
LC-004-006-----0
 62
     2
  6
DASHED
 10
408.414612
 20
44.808765
 11
403.414612
 21
44.808765
  0
LINE
  8
LC-004-006-----0
 62
     2
  6
DASHED
 10
408.414612
 20
93.808769
 11
408.414612
 21
75.808769
  0
LINE
  8
LC-004-006-----0
 62
     2
  6
DASHED
 10
419.414612
 20
75.808769
 11
408.414612
 21
75.808769
  0
LINE
  8
LC-004-006-----0
 62
     2
  6
DASHED
 10
408.414612
 20
79.308769
 11
403.414612
 21
79.308769
  0
LINE
  8
LC-004-006-----0
 62
     2
  6
DASHED
 10
419.414612
 20
93.808769
 11
408.414612
 21
93.808769
  0
LINE
  8
LC-004-006-----0
 62
     2
  6
DASHED
 10
408.414612
 20
90.308769
 11
403.414612
 21
90.308769
  0
LINE
  8
LC-003-002-----0
 62
     1
  6
CONTINUOUS
 10
440.181976
 20
107.542343
 11
419.414612
 21
107.542343
  0
ARC
  8
LC-003-002-----0
 62
     1
  6
CONTINUOUS
 10
545.995850
 20
108.444153
 40
2.000000
 50
186.801839
 51
333.198162
  0
ARC
  8
LC-003-002-----0
 62
     1
  6
CONTINUOUS
 10
537.660706
 20
108.444153
 40
2.000000
 50
206.801835
 51
353.198162
  0
ARC
  8
LC-003-002-----0
 62
     1
  6
CONTINUOUS
 10
537.660706
 20
61.173382
 40
2.000000
 50
6.801838
 51
153.198165
  0
ARC
  8
LC-003-002-----0
 62
     1
  6
CONTINUOUS
 10
545.995850
 20
61.173382
 40
2.000000
 50
26.801838
 51
173.198161
  0
ARC
  8
LC-003-002-----0
 62
     1
  6
CONTINUOUS
 10
541.828308
 20
84.808769
 40
23.500000
 50
264.673249
 51
275.326746
  0
ARC
  8
LC-003-002-----0
 62
     1
  6
CONTINUOUS
 10
541.828308
 20
84.808769
 40
23.500000
 50
284.673252
 51
75.326748
  0
ARC
  8
LC-003-002-----0
 62
     1
  6
CONTINUOUS
 10
537.660706
 20
108.444153
 40
2.000000
 50
206.801835
 51
353.198162
  0
ARC
  8
LC-003-002-----0
 62
     1
  6
CONTINUOUS
 10
537.660706
 20
108.444153
 40
2.000000
 50
206.801835
 51
353.198162
  0
ARC
  8
LC-003-002-----0
 62
     1
  6
CONTINUOUS
 10
537.660706
 20
108.444153
 40
2.000000
 50
206.801835
 51
353.198162
  0
ARC
  8
LC-003-002-----0
 62
     1
  6
CONTINUOUS
 10
541.828308
 20
84.808769
 40
23.500000
 50
104.673250
 51
255.326750
  0
LINE
  8
LC-005-002-RND-0
 62
     2
  6
DASHDOT
 10
541.828308
 20
145.892487
 11
541.828308
 21
22.902222
  0
ARC
  8
LC-003-002-----0
 62
     1
  6
CONTINUOUS
 10
541.828308
 20
84.808769
 40
24.100000
 50
103.327259
 51
256.672741
  0
ARC
  8
LC-003-002-----0
 62
     1
  6
CONTINUOUS
 10
537.660706
 20
61.173382
 40
1.400000
 50
347.569316
 51
172.430680
  0
LINE
  8
LC-005-002-RND-0
 62
     2
  6
DASHDOT
 10
538.414734
 20
104.167976
 11
537.286316
 21
110.567375
  0
LINE
  8
LC-005-002-RND-0
 62
     2
  6
DASHDOT
 10
545.241821
 20
104.167976
 11
546.370239
 21
110.567375
  0
LINE
  8
LC-005-002-RND-0
 62
     2
  6
DASHDOT
 10
538.414734
 20
65.449562
 11
537.286316
 21
59.050156
  0
LINE
  8
LC-005-002-RND-0
 62
     2
  6
DASHDOT
 10
545.241821
 20
65.449562
 11
546.370239
 21
59.050156
  0
ARC
  8
LC-003-002-----0
 62
     1
  6
CONTINUOUS
 10
541.828308
 20
84.808769
 40
24.100000
 50
263.327258
 51
276.672737
  0
ARC
  8
LC-003-002-----0
 62
     1
  6
CONTINUOUS
 10
545.995850
 20
61.173382
 40
1.400000
 50
7.569316
 51
192.430680
  0
ARC
  8
LC-003-002-----0
 62
     1
  6
CONTINUOUS
 10
541.828308
 20
84.808769
 40
24.100000
 50
283.327261
 51
76.672739
  0
ARC
  8
LC-003-002-----0
 62
     1
  6
CONTINUOUS
 10
545.995850
 20
108.444153
 40
1.400000
 50
167.569320
 51
352.430684
  0
ARC
  8
LC-003-002-----0
 62
     1
  6
CONTINUOUS
 10
541.828308
 20
84.808769
 40
24.100000
 50
83.327263
 51
96.672742
  0
ARC
  8
LC-003-002-----0
 62
     1
  6
CONTINUOUS
 10
537.660706
 20
108.444153
 40
1.400000
 50
187.569320
 51
12.430684
  0
LINE
  8
LC-004-006-----0
 62
     2
  6
DASHED
 10
419.414612
 20
107.542343
 11
307.414612
 21
107.542343
  0
LINE
  8
LC-003-002-----0
 62
     1
  6
CONTINUOUS
 10
307.414612
 20
107.542343
 11
284.839813
 21
107.542343
  0
LINE
  8
LC-004-006-----0
 62
     2
  6
DASHED
 10
419.414612
 20
62.075195
 11
307.414612
 21
62.075195
  0
LINE
  8
LC-003-002-----0
 62
     1
  6
CONTINUOUS
 10
307.414612
 20
62.075195
 11
283.491180
 21
62.075195
  0
LINE
  8
LC-003-002-----0
 62
     1
  6
CONTINUOUS
 10
440.158783
 20
62.075195
 11
419.414612
 21
62.075195
  0
CIRCLE
  8
LC-003-002-----0
 62
     1
  6
CONTINUOUS
 10
363.414612
 20
84.808769
 40
2.000000
  0
ENDSEC
  0
EOF
