  0
SECTION
  2
HEADER
  9
$ACADVER
  1
AC1014
  9
$ACADMAINTVER
 70
           0
  9
$DWGCODEPAGE
  3
DOS850
  9
$INSBASE
 10
0.0
 20
0.0
 30
0.0
  9
$EXTMIN
 10
-53.72747
 20
-7.830216338175
 30
0.0
  9
$EXTMAX
 10
164.66276878422
 20
79.86820664938
 30
0.0
  9
$LIMMIN
 10
-53.72747
 20
-7.830216338175
  9
$LIMMAX
 10
164.66276878422
 20
79.86820664938
  9
$ORTHOMODE
 70
           0
  9
$REGENMODE
 70
           1
  9
$FILLMODE
 70
           1
  9
$QTEXTMODE
 70
           0
  9
$MIRRTEXT
 70
           1
  9
$DRAGMODE
 70
           2
  9
$LTSCALE
 40
5.0
  9
$OSMODE
 70
           0
  9
$ATTMODE
 70
           1
  9
$TEXTSIZE
 40
0.2
  9
$TRACEWID
 40
0.05
  9
$TEXTSTYLE
  7
TXT
  9
$CLAYER
  8
0
  9
$CELTYPE
  6
CONTINUOUS
  9
$CECOLOR
 62
         256
  9
$CELTSCALE
 40
1.0
  9
$DELOBJ
 70
           1
  9
$DISPSILH
 70
           0
  9
$DIMSCALE
 40
1.0
  9
$DIMASZ
 40
3.5
  9
$DIMEXO
 40
0.0625
  9
$DIMDLI
 40
0.38
  9
$DIMRND
 40
0.0
  9
$DIMDLE
 40
0.0
  9
$DIMEXE
 40
0.18
  9
$DIMTP
 40
0.0
  9
$DIMTM
 40
0.0
  9
$DIMTXT
 40
3.5
  9
$DIMCEN
 40
0.09
  9
$DIMTSZ
 40
0.0
  9
$DIMTOL
 70
           0
  9
$DIMLIM
 70
           0
  9
$DIMTIH
 70
           1
  9
$DIMTOH
 70
           1
  9
$DIMSE1
 70
           0
  9
$DIMSE2
 70
           0
  9
$DIMTAD
 70
           0
  9
$DIMZIN
 70
           0
  9
$DIMBLK
  1

  9
$DIMASO
 70
           1
  9
$DIMSHO
 70
           1
  9
$DIMPOST
  1

  9
$DIMAPOST
  1

  9
$DIMALT
 70
           0
  9
$DIMALTD
 70
           2
  9
$DIMALTF
 40
25.4
  9
$DIMLFAC
 40
1.0
  9
$DIMTOFL
 70
           0
  9
$DIMTVP
 40
0.0
  9
$DIMTIX
 70
           0
  9
$DIMSOXD
 70
           0
  9
$DIMSAH
 70
           0
  9
$DIMBLK1
  1

  9
$DIMBLK2
  1

  9
$DIMSTYLE
  2
STANDARD
  9
$DIMCLRD
 70
           0
  9
$DIMCLRE
 70
           0
  9
$DIMCLRT
 70
           0
  9
$DIMTFAC
 40
1.0
  9
$DIMGAP
 40
0.09
  9
$DIMJUST
 70
           0
  9
$DIMSD1
 70
           0
  9
$DIMSD2
 70
           0
  9
$DIMTOLJ
 70
           1
  9
$DIMTZIN
 70
           0
  9
$DIMALTZ
 70
           0
  9
$DIMALTTZ
 70
           0
  9
$DIMFIT
 70
           3
  9
$DIMUPT
 70
           0
  9
$DIMUNIT
 70
           2
  9
$DIMDEC
 70
           4
  9
$DIMTDEC
 70
           4
  9
$DIMALTU
 70
           2
  9
$DIMALTTD
 70
           2
  9
$DIMTXSTY
  7
TXT
  9
$DIMAUNIT
 70
           0
  9
$LUNITS
 70
           2
  9
$LUPREC
 70
           2
  9
$SKETCHINC
 40
0.1
  9
$FILLETRAD
 40
0.0
  9
$AUNITS
 70
           0
  9
$AUPREC
 70
           2
  9
$MENU
  1
acad
  9
$ELEVATION
 40
0.0
  9
$PELEVATION
 40
0.0
  9
$THICKNESS
 40
0.0
  9
$LIMCHECK
 70
           0
  9
$BLIPMODE
 70
           1
  9
$CHAMFERA
 40
0.0
  9
$CHAMFERB
 40
0.0
  9
$CHAMFERC
 40
0.0
  9
$CHAMFERD
 40
0.0
  9
$SKPOLY
 70
           0
  9
$TDCREATE
 40
0.000000000
  9
$TDUPDATE
 40
0.000000000
  9
$TDINDWG
 40
0.0000000000
  9
$TDUSRTIMER
 40
0.0000000000
  9
$USRTIMER
 70
           1
  9
$ANGBASE
 50
0.0
  9
$ANGDIR
 70
           0
  9
$PDMODE
 70
           2
  9
$PDSIZE
 40
0.5
  9
$PLINEWID
 40
0.0
  9
$COORDS
 70
           0
  9
$SPLFRAME
 70
           0
  9
$SPLINETYPE
 70
           6
  9
$SPLINESEGS
 70
           8
  9
$ATTDIA
 70
           0
  9
$ATTREQ
 70
           1
  9
$HANDLING
 70
           1
  9
$HANDSEED
  5
BB
  9
$SURFTAB1
 70
           6
  9
$SURFTAB2
 70
           6
  9
$SURFTYPE
 70
           6
  9
$SURFU
 70
           6
  9
$SURFV
 70
           6
  9
$UCSNAME
  2

  9
$UCSORG
 10
0.0
 20
0.0
 30
0.0
  9
$UCSXDIR
 10
1.0
 20
0.0
 30
0.0
  9
$UCSYDIR
 10
0.0
 20
1.0
 30
0.0
  9
$PUCSNAME
  2

  9
$PUCSORG
 10
0.0
 20
0.0
 30
0.0
  9
$PUCSXDIR
 10
1.0
 20
0.0
 30
0.0
  9
$PUCSYDIR
 10
0.0
 20
1.0
 30
0.0
  9
$USERI1
 70
           0
  9
$USERI2
 70
           0
  9
$USERI3
 70
           0
  9
$USERI4
 70
           0
  9
$USERI5
 70
           0
  9
$USERR1
 40
0.0
  9
$USERR2
 40
0.0
  9
$USERR3
 40
0.0
  9
$USERR4
 40
0.0
  9
$USERR5
 40
0.0
  9
$WORLDVIEW
 70
           1
  9
$SHADEDGE
 70
           3
  9
$SHADEDIF
 70
          70
  9
$TILEMODE
 70
           1
  9
$MAXACTVP
 70
          16
  9
$PINSBASE
 10
0.0
 20
0.0
 30
0.0
  9
$PLIMCHECK
 70
           0
  9
$PEXTMIN
 10
1.000000000000E+20
 20
1.000000000000E+20
 30
1.000000000000E+20
  9
$PEXTMAX
 10
-1.000000000000E+20
 20
-1.000000000000E+20
 30
-1.000000000000E+20
  9
$PLIMMIN
 10
0.0
 20
0.0
  9
$PLIMMAX
 10
12.0
 20
9.0
  9
$UNITMODE
 70
           0
  9
$VISRETAIN
 70
           0
  9
$PLINEGEN
 70
           1
  9
$PSLTSCALE
 70
           0
  9
$TREEDEPTH
 70
        3020
  9
$PICKSTYLE
 70
           1
  9
$CMLSTYLE
  2
STANDARD
  9
$CMLJUST
 70
           0
  9
$CMLSCALE
 40
1.0
  9
$PROXYGRAPHICS
 70
           0
  9
$MEASUREMENT
 70
           0
  0
ENDSEC
  0
SECTION
  2
CLASSES
  0
CLASS
  1
LWPOLYLINE
  2
AcDbPolyline
  3
"AutoCAD"
 90
        0
280
           0
281
           1
  0
CLASS
  1
IMAGE
  2
AcDbRasterImage
  3
ISM
 90
      127
280
           0
281
           1
  0
CLASS
  1
OLE2FRAME
  2
AcDbOle2Frame
  3
""
 90
        0
280
           0
281
           1
  0
CLASS
  1
HATCH
  2
AcDbHatch
  3
"ACAD_SEDONA"
 90
        0
280
           0
281
           1
  0
CLASS
  1
DICTIONARYVAR
  2
AcDbDictionaryVar
  3
"AutoCAD"
 90
        0
280
           0
281
           0
  0
CLASS
  1
RASTERVARIABLES
  2
AcDbRasterVariables
  3
ISM
 90
        0
280
           0
281
           0
  0
CLASS
  1
IMAGEDEF
  2
AcDbRasterImageDef
  3
ISM
 90
        0
280
           0
281
           0
  0
CLASS
  1
IMAGEDEF_REACTOR
  2
AcDbRasterImageDefReactor
  3
ISM
 90
        1
280
           0
281
           0
  0
CLASS
  1
IDBUFFER
  2
AcDbIdBuffer
  3
"Acad"
 90
        0
280
           0
281
           0
  0
CLASS
  1
SPATIAL_FILTER
  2
AcDbSpatialFilter
  3
"Acad"
 90
        0
280
           0
281
           0
  0
CLASS
  1
XRECORD
  2
AcDbXrecord
  3
"<Built In>"
 90
        0
280
           0
281
           0
  0
CLASS
  1
SORTENTSTABLE
  2
AcDbSortentsTable
  3
"AutoCAD"
 90
        0
280
           0
281
           0
  0
CLASS
  1
LAYER_INDEX
  2
AcDbLayerIndex
  3
"Acad"
 90
        0
280
           0
281
           0
  0
CLASS
  1
SPATIAL_INDEX
  2
AcDbSpatialIndex
  3
"Acad"
 90
        0
280
           0
281
           0
  0
CLASS
  1
OBJECT_PTR
  2
CAseDLPNTableRecord
  3
"ASE-LPNTableRecord"
 90
        1
280
           0
281
           0
  0
CLASS
  1
LAYOUT
  2
AcDbLayout
  3
"AutoCAD 2000"
 90
        1
280
           0
281
           0
  0
CLASS
  1
PLOTSETTINGS
  2
AcDbPlotSettings
  3
"AutoCAD 2000"
 90
        1
280
           0
281
           0
  0
CLASS
  1
ACDBDICTIONARYWDFLT
  2
AcDbDictionaryWithDefault
  3
"AutoCAD 2000"
 90
        1
280
           0
281
           0
  0
CLASS
  1
ACDBPLACEHOLDER
  2
AcDbPlaceHolder
  3
"AutoCAD 2000"
 90
        1
280
           0
281
           0
  0
CLASS
  1
VBA_PROJECT
  2
AcDbVbaProject
  3
"acadvba"
 90
        1
280
           0
281
           0
  0
CLASS
  1
WIPEOUT
  2
AcDbWipeout
  3
WipeOut|AutoCAD Express Tool|expresstools@autodesk.com
 90
      127
280
           0
281
           1
  0
CLASS
  1
WIPEOUTVARIABLES
  2
AcDbWipeoutVariables
  3
WipeOut|AutoCAD Express Tool|expresstools@autodesk.com
 90
        0
280
           0
281
           0
  0
CLASS
  1
RTEXT
  2
RText
  3
RText|AutoCAD Express Tool|expresstools@autodesk.com
 90
        0
280
           0
281
           1
  0
CLASS
  1
ARCALIGNEDTEXT
  2
AcDbArcAlignedText
  3
ATEXT|AutoCAD Express Tool|expresstools@autodesk.com
 90
        0
280
           0
281
           1
  0
ENDSEC
  0
SECTION
  2
TABLES
  0
TABLE
  2
VPORT
  5
7
100
AcDbSymbolTable
 70
           1
  0
VPORT
  5
15
100
AcDbSymbolTableRecord
100
AcDbViewportTableRecord
  2
*ACTIVE
 70
           0
 10
0.0
 20
0.0
 11
1.0
 21
1.0
 12
6.591288
 22
4.579184
 13
0.0
 23
0.0
 14
1.0
 24
1.0
 15
0.0
 25
0.0
 16
0.0
 26
0.0
 36
1.0
 17
0.0
 27
0.0
 37
0.0
 40
9.158369
 41
0.688564
 42
50.0
 43
0.0
 44
0.0
 50
0.0
 51
0.0
 71
           0
 72
         100
 73
           1
 74
           1
 75
           0
 76
           0
 77
           0
 78
           0
  0
ENDTAB
  0
TABLE
  2
LTYPE
  5
4
100
AcDbSymbolTable
 70
           6
  0
LTYPE
  5
11
100
AcDbSymbolTableRecord
100
AcDbLinetypeTableRecord
  2
BYBLOCK
 70
          64
  3

 72
          65
 73
           0
 40
0.0
  0
LTYPE
  5
12
100
AcDbSymbolTableRecord
100
AcDbLinetypeTableRecord
  2
BYLAYER
 70
          64
  3

 72
          65
 73
           0
 40
0.0
  0
LTYPE
  5
13
100
AcDbSymbolTableRecord
100
AcDbLinetypeTableRecord
  2
CONTINUOUS
 70
          64
  3
Solid line
 72
          65
 73
           0
 40
0.0
  0
LTYPE
  5
1D
100
AcDbSymbolTableRecord
100
AcDbLinetypeTableRecord
  2
AUSGEZOGEN
 70
           0
  3

 72
          65
 73
           2
 40
0.5
 49
0.25
 74
           0
 49
-0.25
 74
           0
  0
LTYPE
  5
1E
100
AcDbSymbolTableRecord
100
AcDbLinetypeTableRecord
  2
STRICHLINIE
 70
           0
  3

 72
          65
 73
           2
 40
0.5
 49
0.25
 74
           0
 49
-0.25
 74
           0
  0
LTYPE
  5
1F
100
AcDbSymbolTableRecord
100
AcDbLinetypeTableRecord
  2
STRICHPUNKT
 70
           0
  3

 72
          65
 73
           4
 40
1.0
 49
0.5
 74
           0
 49
-0.25
 74
           0
 49
0.0
 74
           0
 49
-0.25
 74
           0
  0
ENDTAB
  0
TABLE
  2
LAYER
  5
2
100
AcDbSymbolTable
 70
           5
  0
LAYER
  5
14
100
AcDbSymbolTableRecord
100
AcDbLayerTableRecord
  2
0
 70
           0
 62
           7
  6
CONTINUOUS
  0
LAYER
  5
20
100
AcDbSymbolTableRecord
100
AcDbLayerTableRecord
  2
LC-003-002-----0
 70
           0
 62
           7
  6
CONTINUOUS
  0
LAYER
  5
21
100
AcDbSymbolTableRecord
100
AcDbLayerTableRecord
  2
LC-005-002-RND-0
 70
           0
 62
           7
  6
CONTINUOUS
  0
LAYER
  5
22
100
AcDbSymbolTableRecord
100
AcDbLayerTableRecord
  2
LC-004-006-----0
 70
           0
 62
           7
  6
CONTINUOUS
  0
LAYER
  5
23
100
AcDbSymbolTableRecord
100
AcDbLayerTableRecord
  2
LC-006-012-----0
 70
           0
 62
           7
  6
CONTINUOUS
  0
ENDTAB
  0
TABLE
  2
STYLE
  5
3
100
AcDbSymbolTable
 70
           1
  0
STYLE
  5
17
100
AcDbSymbolTableRecord
100
AcDbTextStyleTableRecord
  2
TXT
 70
           0
 40
3.5
 41
1.0
 50
0.0
 71
           0
 42
3.5
  3
TXT
  4

  0
ENDTAB
  0
TABLE
  2
VIEW
  5
5
100
AcDbSymbolTable
 70
           0
  0
ENDTAB
  0
TABLE
  2
UCS
  5
6
100
AcDbSymbolTable
 70
           0
  0
ENDTAB
  0
TABLE
  2
APPID
  5
8
100
AcDbSymbolTable
 70
           2
  0
APPID
  5
16
100
AcDbSymbolTableRecord
100
AcDbRegAppTableRecord
  2
ACAD
 70
           0
  0
APPID
  5
24
100
AcDbSymbolTableRecord
100
AcDbRegAppTableRecord
  2
MegaCADPntStyle
 70
           0
  0
ENDTAB
  0
TABLE
  2
DIMSTYLE
  5
9
100
AcDbSymbolTable
 70
           1
  0
DIMSTYLE
105
18
100
AcDbSymbolTableRecord
100
AcDbDimStyleTableRecord
  2
STANDARD
 70
           0
  3

  4

  5

  6

  7

 40
1.0
 41
0.18
 42
0.0625
 43
0.38
 44
0.18
 45
0.0
 46
0.0
 47
0.0
 48
0.0
 71
           0
 72
           0
 73
           1
 74
           1
 75
           0
 76
           0
 77
           0
 78
           0
140
0.18
141
0.09
142
0.0
143
25.4
144
1.0
145
0.0
146
1.0
147
0.09
170
           0
171
           2
172
           0
173
           0
174
           0
175
           0
176
           0
177
           0
178
           0
270
           2
271
           4
272
           4
273
           2
274
           2
275
           0
280
           0
281
           0
282
           0
283
           1
284
           0
285
           0
286
           0
287
           0
288
           0
340
17
  0
ENDTAB
  0
TABLE
  2
BLOCK_RECORD
  5
1
100
AcDbSymbolTable
 70
           2
  0
BLOCK_RECORD
  5
A
100
AcDbSymbolTableRecord
100
AcDbBlockTableRecord
  2
*MODEL_SPACE
  0
BLOCK_RECORD
  5
B
100
AcDbSymbolTableRecord
100
AcDbBlockTableRecord
  2
*PAPER_SPACE
  0
BLOCK_RECORD
  5
25
102
{ACAD_XDICTIONARY
360
5C
102
}
100
AcDbSymbolTableRecord
100
AcDbBlockTableRecord
  2
ELIPPSE
  0
BLOCK_RECORD
  5
26
102
{ACAD_XDICTIONARY
360
5C
102
}
100
AcDbSymbolTableRecord
100
AcDbBlockTableRecord
  2
*X1
  0
ENDTAB
  0
ENDSEC
  0
SECTION
  2
BLOCKS
  0
BLOCK
  5
D
100
AcDbEntity
  8
0
100
AcDbBlockBegin
  2
*MODEL_SPACE
 70
           0
 10
0.0
 20
0.0
 30
0.0
  3
*MODEL_SPACE
  1

  0
ENDBLK
  5
E
100
AcDbEntity
  8
0
100
AcDbBlockEnd
  0
BLOCK
  5
F
100
AcDbEntity
 67
           1
  8
0
100
AcDbBlockBegin
  2
*PAPER_SPACE
 70
           0
 10
0.0
 20
0.0
 30
0.0
  3
*PAPER_SPACE
  1

  0
ENDBLK
  5
10
100
AcDbEntity
 67
           1
  8
0
100
AcDbBlockEnd
  0
BLOCK
  5
A3
100
AcDbEntity
  8
0
100
AcDbBlockBegin
  2
ELIPPSE
 70
          64
 10
0.0
 20
0.0
 30
0.0
  3
ELIPPSE
  1

  0
CIRCLE
  5
A4
100
AcDbEntity
  8
0
  6
BYBLOCK
 62
           0
100
AcDbCircle
 10
0.0
 20
0.0
 30
0.0
 40
1.0
  0
ENDBLK
  5
A5
100
AcDbEntity
  8
0
  6
BYBLOCK
 62
           0
100
AcDbBlockEnd
  0
BLOCK
  5
A6
100
AcDbEntity
  8
0
100
AcDbBlockBegin
  2
*X1
 70
          65
 10
0.0
 20
0.0
 30
0.0
  3
*X1
  1

  0
LINE
  5
A7
100
AcDbEntity
  8
0
  6
BYBLOCK
 62
           0
100
AcDbLine
 10
29.964923146122
 20
52.026654719142
 30
0.0
 11
32.349911
 21
54.41164257302
 31
0.0
  0
LINE
  5
A8
100
AcDbEntity
  8
0
  6
BYBLOCK
 62
           0
100
AcDbLine
 10
27.207206699494
 20
52.026654719142
 30
0.0
 11
30.309324980352
 21
55.128773
 31
0.0
  0
LINE
  5
A9
100
AcDbEntity
  8
0
  6
BYBLOCK
 62
           0
100
AcDbLine
 10
30.309324980352
 20
55.128773
 30
0.0
 11
30.809324980352
 21
55.628773
 31
0.0
  0
LINE
  5
AA
100
AcDbEntity
  8
0
  6
BYBLOCK
 62
           0
100
AcDbLine
 10
24.449490252867
 20
52.026654719142
 30
0.0
 11
27.551608533725
 21
55.128773
 31
0.0
  0
LINE
  5
AB
100
AcDbEntity
  8
0
  6
BYBLOCK
 62
           0
100
AcDbLine
 10
27.551608533725
 20
55.128773
 30
0.0
 11
28.051608533725
 21
55.628773
 31
0.0
  0
LINE
  5
AC
100
AcDbEntity
  8
0
  6
BYBLOCK
 62
           0
100
AcDbLine
 10
32.051608533725
 20
59.628773
 30
0.0
 11
32.349911
 21
59.927075466275
 31
0.0
  0
LINE
  5
AD
100
AcDbEntity
  8
0
  6
BYBLOCK
 62
           0
100
AcDbLine
 10
22.073059681704
 20
52.407940594607
 30
0.0
 11
24.793892087097
 21
55.128773
 31
0.0
  0
LINE
  5
AE
100
AcDbEntity
  8
0
  6
BYBLOCK
 62
           0
100
AcDbLine
 10
24.793892087097
 20
55.128773
 30
0.0
 11
25.293892087097
 21
55.628773
 31
0.0
  0
LINE
  5
AF
100
AcDbEntity
  8
0
  6
BYBLOCK
 62
           0
100
AcDbLine
 10
29.293892087097
 20
59.628773
 30
0.0
 11
29.793892087097
 21
60.128773
 31
0.0
  0
LINE
  5
B0
100
AcDbEntity
  8
0
  6
BYBLOCK
 62
           0
100
AcDbLine
 10
29.793892087097
 20
60.128773
 30
0.0
 11
31.293892087097
 21
61.628773
 31
0.0
  0
LINE
  5
B1
100
AcDbEntity
  8
0
  6
BYBLOCK
 62
           0
100
AcDbLine
 10
19.894364946331
 20
52.986962305861
 30
0.0
 11
22.53617564047
 21
55.628773
 31
0.0
  0
LINE
  5
B2
100
AcDbEntity
  8
0
  6
BYBLOCK
 62
           0
100
AcDbLine
 10
26.53617564047
 20
59.628773
 30
0.0
 11
27.03617564047
 21
60.128773
 31
0.0
  0
LINE
  5
B3
100
AcDbEntity
  8
0
  6
BYBLOCK
 62
           0
100
AcDbLine
 10
27.03617564047
 20
60.128773
 30
0.0
 11
28.53617564047
 21
61.628773
 31
0.0
  0
LINE
  5
B4
100
AcDbEntity
  8
0
  6
BYBLOCK
 62
           0
100
AcDbLine
 10
18.41155512111
 20
54.261868927268
 30
0.0
 11
20.140745121908
 21
55.991058928066
 31
0.0
  0
LINE
  5
B5
100
AcDbEntity
  8
0
  6
BYBLOCK
 62
           0
100
AcDbLine
 10
23.778459193842
 20
59.628773
 30
0.0
 11
25.778459193842
 21
61.628773
 31
0.0
  0
LINE
  5
B6
100
AcDbEntity
  8
0
  6
BYBLOCK
 62
           0
100
AcDbLine
 10
17.692843415438
 20
56.300873668223
 30
0.0
 11
19.020742747215
 21
57.628773
 31
0.0
  0
LINE
  5
B7
100
AcDbEntity
  8
0
  6
BYBLOCK
 62
           0
100
AcDbLine
 10
19.020742747215
 20
57.628773
 30
0.0
 11
19.43353779164
 21
58.041568044425
 31
0.0
  0
LINE
  5
B8
100
AcDbEntity
  8
0
  6
BYBLOCK
 62
           0
100
AcDbLine
 10
21.020742747215
 20
59.628773
 30
0.0
 11
23.020742747215
 21
61.628773
 31
0.0
  0
LINE
  5
B9
100
AcDbEntity
  8
0
  6
BYBLOCK
 62
           0
100
AcDbLine
 10
20.044347005826
 20
61.410093705239
 30
0.0
 11
20.263026300587
 21
61.628773
 31
0.0
  0
ENDBLK
  5
BA
100
AcDbEntity
  8
0
  6
BYBLOCK
 62
           0
100
AcDbBlockEnd
  0
ENDSEC
  0
SECTION
  2
ENTITIES
  0
LINE
  5
27
100
AcDbEntity
  8
LC-005-002-RND-0
  6
STRICHPUNKT
 62
           2
100
AcDbLine
 10
-53.72747
 20
36.628773
 30
0.0
 11
56.36245
 21
36.628773
 31
0.0
  0
LINE
  5
28
100
AcDbEntity
  8
LC-003-002-----0
  6
AUSGEZOGEN
 62
           1
100
AcDbLine
 10
-36.650089
 20
56.628773
 30
0.0
 11
2.349911
 21
56.628773
 31
0.0
  0
LINE
  5
29
100
AcDbEntity
  8
LC-003-002-----0
  6
AUSGEZOGEN
 62
           1
100
AcDbLine
 10
-36.650089
 20
16.628773
 30
0.0
 11
2.349911
 21
16.628773
 31
0.0
  0
LINE
  5
2A
100
AcDbEntity
  8
LC-003-002-----0
  6
AUSGEZOGEN
 62
           1
100
AcDbLine
 10
18.349911
 20
75.628773
 30
0.0
 11
4.349911
 21
75.628773
 31
0.0
  0
LINE
  5
2B
100
AcDbEntity
  8
LC-003-002-----0
  6
AUSGEZOGEN
 62
           1
100
AcDbLine
 10
18.349911
 20
-2.371227
 30
0.0
 11
4.349911
 21
-2.371227
 31
0.0
  0
LINE
  5
2C
100
AcDbEntity
  8
LC-003-002-----0
  6
AUSGEZOGEN
 62
           1
100
AcDbLine
 10
-37.650089
 20
55.628773
 30
0.0
 11
-37.650089
 21
17.628773
 31
0.0
  0
LINE
  5
2D
100
AcDbEntity
  8
LC-003-002-----0
  6
AUSGEZOGEN
 62
           1
100
AcDbLine
 10
19.349911
 20
53.455078937827
 30
0.0
 11
19.349911
 21
-1.37123
 31
0.0
  0
LINE
  5
2E
100
AcDbEntity
  8
LC-003-002-----0
  6
AUSGEZOGEN
 62
           1
100
AcDbLine
 10
19.349911
 20
74.628773
 30
0.0
 11
19.349911
 21
60.502305728023
 31
0.0
  0
LINE
  5
2F
100
AcDbEntity
  8
LC-003-002-----0
  6
AUSGEZOGEN
 62
           1
100
AcDbLine
 10
3.349911
 20
-1.371227
 30
0.0
 11
3.349911
 21
74.628773
 31
0.0
  0
LINE
  5
30
100
AcDbEntity
  8
LC-003-002-----0
  6
AUSGEZOGEN
 62
           1
100
AcDbLine
 10
-50.26276
 20
48.128773
 30
0.0
 11
-37.650091
 21
48.128773
 31
0.0
  0
LINE
  5
31
100
AcDbEntity
  8
LC-003-002-----0
  6
AUSGEZOGEN
 62
           1
100
AcDbLine
 10
-51.204971
 20
25.128773
 30
0.0
 11
-37.650087
 21
25.128773
 31
0.0
  0
LINE
  5
32
100
AcDbEntity
  8
LC-006-012-----0
  6
AUSGEZOGEN
 62
           2
100
AcDbLine
 10
-51.204971
 20
25.128773
 30
0.0
 11
-50.687931
 21
29.141802
 31
0.0
  0
LINE
  5
33
100
AcDbEntity
  8
LC-006-012-----0
  6
AUSGEZOGEN
 62
           2
100
AcDbLine
 10
-50.687931
 20
29.141802
 30
0.0
 11
-51.123108
 21
40.01239
 31
0.0
  0
LINE
  5
34
100
AcDbEntity
  8
LC-006-012-----0
  6
AUSGEZOGEN
 62
           2
100
AcDbLine
 10
-51.123108
 20
40.01239
 30
0.0
 11
-50.26276
 21
48.128773
 31
0.0
  0
LINE
  5
35
100
AcDbEntity
  8
LC-006-012-----0
  6
AUSGEZOGEN
 62
           2
100
AcDbLine
 10
54.253227
 20
25.128773
 30
0.0
 11
54.715473
 21
30.105696
 31
0.0
  0
LINE
  5
36
100
AcDbEntity
  8
LC-006-012-----0
  6
AUSGEZOGEN
 62
           2
100
AcDbLine
 10
54.715473
 20
30.105696
 30
0.0
 11
54.019192
 21
40.976284
 31
0.0
  0
LINE
  5
37
100
AcDbEntity
  8
LC-006-012-----0
  6
AUSGEZOGEN
 62
           2
100
AcDbLine
 10
54.019192
 20
40.976284
 30
0.0
 11
54.464962
 21
48.128773
 31
0.0
  0
ARC
  5
38
100
AcDbEntity
  8
LC-003-002-----0
  6
AUSGEZOGEN
 62
           1
100
AcDbCircle
 10
-36.650089
 20
55.628773
 30
0.0
 40
1.0
100
AcDbArc
 50
90.000003
 51
180.000009
  0
ARC
  5
39
100
AcDbEntity
  8
LC-003-002-----0
  6
AUSGEZOGEN
 62
           1
100
AcDbCircle
 10
-36.650089
 20
17.628773
 30
0.0
 40
1.0
100
AcDbArc
 50
180.000009000001
 51
269.999997
  0
LINE
  5
3A
100
AcDbEntity
  8
LC-003-002-----0
  6
AUSGEZOGEN
 62
           1
100
AcDbLine
 10
2.349911
 20
56.628773
 30
0.0
 11
2.349911
 21
16.628773
 31
0.0
  0
LINE
  5
3B
100
AcDbEntity
  8
LC-003-002-----0
  6
AUSGEZOGEN
 62
           1
100
AcDbLine
 10
2.349911
 20
17.378773
 30
0.0
 11
3.349911
 21
17.378773
 31
0.0
  0
LINE
  5
3C
100
AcDbEntity
  8
LC-003-002-----0
  6
AUSGEZOGEN
 62
           1
100
AcDbLine
 10
2.349911
 20
55.878773
 30
0.0
 11
3.349911
 21
55.878773
 31
0.0
  0
LINE
  5
3D
100
AcDbEntity
  8
LC-004-006-----0
  6
STRICHLINIE
 62
           2
100
AcDbLine
 10
-37.650089
 20
48.128773
 30
0.0
 11
32.349911
 21
48.128773
 31
0.0
  0
LINE
  5
3E
100
AcDbEntity
  8
LC-003-002-----0
  6
AUSGEZOGEN
 62
           1
100
AcDbLine
 10
32.349911
 20
48.128773
 30
0.0
 11
54.464962
 21
48.128773
 31
0.0
  0
LINE
  5
3F
100
AcDbEntity
  8
LC-004-006-----0
  6
STRICHLINIE
 62
           2
100
AcDbLine
 10
-37.650089
 20
25.128773
 30
0.0
 11
32.349911
 21
25.128773
 31
0.0
  0
LINE
  5
40
100
AcDbEntity
  8
LC-003-002-----0
  6
AUSGEZOGEN
 62
           1
100
AcDbLine
 10
32.349911
 20
25.128773
 30
0.0
 11
54.253227
 21
25.128773
 31
0.0
  0
LINE
  5
41
100
AcDbEntity
  8
LC-003-002-----0
  6
AUSGEZOGEN
 62
           1
100
AcDbLine
 10
3.349911
 20
-1.371227
 30
0.0
 11
4.349911
 21
-2.371227
 31
0.0
  0
LINE
  5
42
100
AcDbEntity
  8
LC-003-002-----0
  6
AUSGEZOGEN
 62
           1
100
AcDbLine
 10
3.349911
 20
74.628773
 30
0.0
 11
4.349911
 21
75.628773
 31
0.0
  0
LINE
  5
43
100
AcDbEntity
  8
LC-003-002-----0
  6
AUSGEZOGEN
 62
           1
100
AcDbLine
 10
4.349911
 20
-2.371227
 30
0.0
 11
4.349911
 21
75.628773
 31
0.0
  0
LINE
  5
44
100
AcDbEntity
  8
LC-003-002-----0
  6
AUSGEZOGEN
 62
           1
100
AcDbLine
 10
19.349911
 20
74.628773
 30
0.0
 11
18.349911
 21
75.628773
 31
0.0
  0
LINE
  5
45
100
AcDbEntity
  8
LC-003-002-----0
  6
AUSGEZOGEN
 62
           1
100
AcDbLine
 10
19.349911
 20
-1.371227
 30
0.0
 11
18.349911
 21
-2.371227
 31
0.0
  0
LINE
  5
46
100
AcDbEntity
  8
LC-003-002-----0
  6
AUSGEZOGEN
 62
           1
100
AcDbLine
 10
18.349911
 20
54.314869991084
 30
0.0
 11
18.349911
 21
-2.37123
 31
0.0
  0
LINE
  5
47
100
AcDbEntity
  8
LC-003-002-----0
  6
AUSGEZOGEN
 62
           1
100
AcDbLine
 10
18.349911
 20
75.628773
 30
0.0
 11
18.349911
 21
58.649811904583
 31
0.0
  0
LINE
  5
48
100
AcDbEntity
  8
LC-005-002-RND-0
  6
STRICHPUNKT
 62
           2
100
AcDbLine
 10
75.948750576994
 20
36.628773
 30
0.0
 11
164.66276878422
 21
36.628773
 31
0.0
  0
LINE
  5
49
100
AcDbEntity
  8
LC-005-002-RND-0
  6
STRICHPUNKT
 62
           2
100
AcDbLine
 10
121.267975
 20
79.86820664938
 30
0.0
 11
121.267975
 21
-7.830216338175
 31
0.0
  0
ARC
  5
4A
100
AcDbEntity
  8
LC-003-002-----0
  6
AUSGEZOGEN
 62
           1
100
AcDbCircle
 10
121.267975
 20
36.628773
 30
0.0
 40
11.5
100
AcDbArc
 50
349.912230744731
 51
10.087762859163
  0
ARC
  5
4B
100
AcDbEntity
  8
LC-003-002-----0
  6
AUSGEZOGEN
 62
           1
100
AcDbCircle
 10
121.267975
 20
36.628773
 30
0.0
 40
11.5
100
AcDbArc
 50
21.912251144368
 51
158.087798199731
  0
ARC
  5
4C
100
AcDbEntity
  8
LC-003-002-----0
  6
AUSGEZOGEN
 62
           1
100
AcDbCircle
 10
121.267975
 20
36.628773
 30
0.0
 40
11.5
100
AcDbArc
 50
201.912207409532
 51
338.087743246341
  0
ARC
  5
4D
100
AcDbEntity
  8
LC-003-002-----0
  6
AUSGEZOGEN
 62
           1
100
AcDbCircle
 10
121.267975
 20
36.628773
 30
0.0
 40
11.5
100
AcDbArc
 50
169.912219549838
 51
190.087786846274
  0
ARC
  5
4E
100
AcDbEntity
  8
LC-003-002-----0
  6
AUSGEZOGEN
 62
           1
100
AcDbCircle
 10
132.686911477412
 20
39.903101855346
 30
0.0
 40
1.263736263736
100
AcDbArc
 50
126.389747000001
 51
265.610257
  0
LINE
  5
4F
100
AcDbEntity
  8
LC-005-002-RND-0
  6
STRICHPUNKT
 62
           2
100
AcDbLine
 10
130.726276362288
 20
39.340898828774
 30
0.0
 11
133.877236177571
 21
40.244420434946
 31
0.0
  0
LINE
  5
50
100
AcDbEntity
  8
LC-005-002-RND-0
  6
STRICHPUNKT
 62
           2
100
AcDbLine
 10
111.809674894525
 20
33.916647303323
 30
0.0
 11
108.658695102324
 21
33.013122326795
 31
0.0
  0
ARC
  5
51
100
AcDbEntity
  8
LC-003-002-----0
  6
AUSGEZOGEN
 62
           1
100
AcDbCircle
 10
109.849019802484
 20
33.354440906395
 30
0.0
 40
1.263736263736
100
AcDbArc
 50
306.389741999999
 51
85.610263000001
  0
LINE
  5
52
100
AcDbEntity
  8
LC-005-002-RND-0
  6
STRICHPUNKT
 62
           2
100
AcDbLine
 10
130.726276362288
 20
33.916647171226
 30
0.0
 11
133.877236045475
 21
33.013124308241
 31
0.0
  0
ARC
  5
53
100
AcDbEntity
  8
LC-003-002-----0
  6
AUSGEZOGEN
 62
           1
100
AcDbCircle
 10
132.686911345316
 20
33.354442887841
 30
0.0
 40
1.263736263736
100
AcDbArc
 50
94.389737000001
 51
233.610258
  0
ARC
  5
54
100
AcDbEntity
  8
LC-003-002-----0
  6
AUSGEZOGEN
 62
           1
100
AcDbCircle
 10
109.849019670387
 20
39.903103836792
 30
0.0
 40
1.263736263736
100
AcDbArc
 50
274.389742999999
 51
53.610253000001
  0
LINE
  5
55
100
AcDbEntity
  8
LC-005-002-RND-0
  6
STRICHPUNKT
 62
           2
100
AcDbLine
 10
111.809674894525
 20
39.340898696677
 30
0.0
 11
108.658694970228
 21
40.244422416392
 31
0.0
  0
CIRCLE
  5
56
100
AcDbEntity
  8
LC-003-002-----0
  6
AUSGEZOGEN
 62
           1
100
AcDbCircle
 10
121.267975
 20
36.628773
 30
0.0
 40
25.0
  0
CIRCLE
  5
57
100
AcDbEntity
  8
LC-003-002-----0
  6
AUSGEZOGEN
 62
           1
100
AcDbCircle
 10
121.267975
 20
36.628773
 30
0.0
 40
39.0
  0
CIRCLE
  5
58
100
AcDbEntity
  8
LC-005-002-RND-0
  6
STRICHPUNKT
 62
           2
100
AcDbCircle
 10
121.267975
 20
36.628773
 30
0.0
 40
21.0
  0
CIRCLE
  5
59
100
AcDbEntity
  8
LC-005-002-RND-0
  6
STRICHPUNKT
 62
           2
100
AcDbCircle
 10
121.267975
 20
36.628773
 30
0.0
 40
34.0
  0
CIRCLE
  5
5A
100
AcDbEntity
  8
LC-004-006-----0
  6
STRICHLINIE
 62
           2
100
AcDbCircle
 10
121.267975
 20
36.628773
 30
0.0
 40
20.0
  0
CIRCLE
  5
5B
100
AcDbEntity
  8
LC-003-002-----0
  6
AUSGEZOGEN
 62
           1
100
AcDbCircle
 10
121.267975
 20
70.628773
 30
0.0
 40
2.25
  0
ARC
  5
5C
100
AcDbEntity
  8
LC-006-012-----0
  6
AUSGEZOGEN
 62
           2
100
AcDbCircle
 10
121.267975
 20
57.628773
 30
0.0
 40
2.5
100
AcDbArc
 50
15.98028973983
 51
301.697265062526
  0
CIRCLE
  5
5D
100
AcDbEntity
  8
LC-003-002-----0
  6
AUSGEZOGEN
 62
           1
100
AcDbCircle
 10
121.267975
 20
57.628773
 30
0.0
 40
2.0
  0
LINE
  5
5E
100
AcDbEntity
  8
LC-005-002-RND-0
  6
STRICHPUNKT
 62
           2
100
AcDbLine
 10
157.95235244983
 20
57.808508195713
 30
0.0
 11
84.46411494596
 21
15.380054490582
 31
0.0
  0
LINE
  5
5F
100
AcDbEntity
  8
LC-005-002-RND-0
  6
STRICHPUNKT
 62
           2
100
AcDbLine
 10
157.761650886238
 20
15.559139403361
 30
0.0
 11
84.714894120672
 21
57.73270408539
 31
0.0
  0
CIRCLE
  5
60
100
AcDbEntity
  8
LC-003-002-----0
  6
AUSGEZOGEN
 62
           1
100
AcDbCircle
 10
91.823111271329
 20
53.628773
 30
0.0
 40
2.25
  0
ARC
  5
61
100
AcDbEntity
  8
LC-006-012-----0
  6
AUSGEZOGEN
 62
           2
100
AcDbCircle
 10
103.081441520527
 20
47.128773
 30
0.0
 40
2.5
100
AcDbArc
 50
75.98028973983
 51
1.697265062526
  0
CIRCLE
  5
62
100
AcDbEntity
  8
LC-003-002-----0
  6
AUSGEZOGEN
 62
           1
100
AcDbCircle
 10
103.081441520527
 20
47.128773
 30
0.0
 40
2.0
  0
CIRCLE
  5
63
100
AcDbEntity
  8
LC-003-002-----0
  6
AUSGEZOGEN
 62
           1
100
AcDbCircle
 10
91.823111271329
 20
19.628773
 30
0.0
 40
2.25
  0
ARC
  5
64
100
AcDbEntity
  8
LC-006-012-----0
  6
AUSGEZOGEN
 62
           2
100
AcDbCircle
 10
103.081441520527
 20
26.128773
 30
0.0
 40
2.5
100
AcDbArc
 50
135.98028973983
 51
61.697265062526
  0
CIRCLE
  5
65
100
AcDbEntity
  8
LC-003-002-----0
  6
AUSGEZOGEN
 62
           1
100
AcDbCircle
 10
103.081441520527
 20
26.128773
 30
0.0
 40
2.0
  0
CIRCLE
  5
66
100
AcDbEntity
  8
LC-003-002-----0
  6
AUSGEZOGEN
 62
           1
100
AcDbCircle
 10
121.267975
 20
2.628773
 30
0.0
 40
2.25
  0
ARC
  5
67
100
AcDbEntity
  8
LC-006-012-----0
  6
AUSGEZOGEN
 62
           2
100
AcDbCircle
 10
121.267975
 20
15.628773
 30
0.0
 40
2.5
100
AcDbArc
 50
195.980289739829
 51
121.697265062526
  0
CIRCLE
  5
68
100
AcDbEntity
  8
LC-003-002-----0
  6
AUSGEZOGEN
 62
           1
100
AcDbCircle
 10
121.267975
 20
15.628773
 30
0.0
 40
2.0
  0
CIRCLE
  5
69
100
AcDbEntity
  8
LC-003-002-----0
  6
AUSGEZOGEN
 62
           1
100
AcDbCircle
 10
150.712838728671
 20
19.628773
 30
0.0
 40
2.25
  0
ARC
  5
6A
100
AcDbEntity
  8
LC-006-012-----0
  6
AUSGEZOGEN
 62
           2
100
AcDbCircle
 10
139.454508479473
 20
26.128773
 30
0.0
 40
2.5
100
AcDbArc
 50
255.980289739829
 51
181.697265062526
  0
CIRCLE
  5
6B
100
AcDbEntity
  8
LC-003-002-----0
  6
AUSGEZOGEN
 62
           1
100
AcDbCircle
 10
139.454508479473
 20
26.128773
 30
0.0
 40
2.0
  0
CIRCLE
  5
6C
100
AcDbEntity
  8
LC-003-002-----0
  6
AUSGEZOGEN
 62
           1
100
AcDbCircle
 10
150.712838728671
 20
53.628773
 30
0.0
 40
2.25
  0
ARC
  5
6D
100
AcDbEntity
  8
LC-006-012-----0
  6
AUSGEZOGEN
 62
           2
100
AcDbCircle
 10
139.454508479473
 20
47.128773
 30
0.0
 40
2.5
100
AcDbArc
 50
315.980289739829
 51
241.697265062526
  0
CIRCLE
  5
6E
100
AcDbEntity
  8
LC-003-002-----0
  6
AUSGEZOGEN
 62
           1
100
AcDbCircle
 10
139.454508479473
 20
47.128773
 30
0.0
 40
2.0
  0
CIRCLE
  5
6F
100
AcDbEntity
  8
LC-003-002-----0
  6
AUSGEZOGEN
 62
           1
100
AcDbCircle
 10
121.267975
 20
36.628773
 30
0.0
 40
38.0
  0
LINE
  5
70
100
AcDbEntity
  8
LC-003-002-----0
  6
AUSGEZOGEN
 62
           1
100
AcDbLine
 10
32.349911
 20
61.128773
 30
0.0
 11
32.349911
 21
12.128773
 31
0.0
  0
LINE
  5
71
100
AcDbEntity
  8
LC-003-002-----0
  6
AUSGEZOGEN
 62
           1
100
AcDbLine
 10
19.349911
 20
61.628773
 30
0.0
 11
31.849911
 21
61.628773
 31
0.0
  0
LINE
  5
72
100
AcDbEntity
  8
LC-003-002-----0
  6
AUSGEZOGEN
 62
           1
100
AcDbLine
 10
19.349911
 20
11.628773
 30
0.0
 11
31.849911
 21
11.628773
 31
0.0
  0
LINE
  5
73
100
AcDbEntity
  8
LC-003-002-----0
  6
AUSGEZOGEN
 62
           1
100
AcDbLine
 10
31.849911
 20
61.628773
 30
0.0
 11
32.349911
 21
61.128773
 31
0.0
  0
LINE
  5
74
100
AcDbEntity
  8
LC-003-002-----0
  6
AUSGEZOGEN
 62
           1
100
AcDbLine
 10
32.349911
 20
12.128773
 30
0.0
 11
31.849911
 21
11.628773
 31
0.0
  0
LINE
  5
75
100
AcDbEntity
  8
LC-003-002-----0
  6
AUSGEZOGEN
 62
           1
100
AcDbLine
 10
11.349911
 20
-2.371227
 30
0.0
 11
11.349911
 21
75.628773
 31
0.0
  0
LINE
  5
76
100
AcDbEntity
  8
LC-005-002-RND-0
  6
STRICHPUNKT
 62
           2
100
AcDbLine
 10
-2.800090597508
 20
70.628773
 30
0.0
 11
25.200815377574
 21
70.628773
 31
0.0
  0
LINE
  5
77
100
AcDbEntity
  8
LC-004-006-----0
  6
STRICHLINIE
 62
           2
100
AcDbLine
 10
3.349911
 20
68.378773
 30
0.0
 11
19.349911
 21
68.378773
 31
0.0
  0
LINE
  5
78
100
AcDbEntity
  8
LC-004-006-----0
  6
STRICHLINIE
 62
           2
100
AcDbLine
 10
3.349911
 20
72.878773
 30
0.0
 11
19.349911
 21
72.878773
 31
0.0
  0
LINE
  5
79
100
AcDbEntity
  8
LC-005-002-RND-0
  6
STRICHPUNKT
 62
           2
100
AcDbLine
 10
-2.800090597508
 20
2.628773
 30
0.0
 11
25.200815377574
 21
2.628773
 31
0.0
  0
LINE
  5
7A
100
AcDbEntity
  8
LC-004-006-----0
  6
STRICHLINIE
 62
           2
100
AcDbLine
 10
3.349911
 20
4.878773
 30
0.0
 11
19.349911
 21
4.878773
 31
0.0
  0
LINE
  5
7B
100
AcDbEntity
  8
LC-004-006-----0
  6
STRICHLINIE
 62
           2
100
AcDbLine
 10
3.349911
 20
0.378773
 30
0.0
 11
19.349911
 21
0.378773
 31
0.0
  0
LINE
  5
7C
100
AcDbEntity
  8
LC-006-012-----0
  6
AUSGEZOGEN
 62
           2
100
AcDbLine
 10
24.349911
 20
60.128773
 30
0.0
 11
32.349911
 21
60.128773
 31
0.0
  0
LINE
  5
7D
100
AcDbEntity
  8
LC-006-012-----0
  6
AUSGEZOGEN
 62
           2
100
AcDbLine
 10
24.349911
 20
55.128773
 30
0.0
 11
32.349911
 21
55.128773
 31
0.0
  0
LINE
  5
7E
100
AcDbEntity
  8
LC-003-002-----0
  6
AUSGEZOGEN
 62
           1
100
AcDbLine
 10
20.349911
 20
59.628773
 30
0.0
 11
32.349911
 21
59.628773
 31
0.0
  0
LINE
  5
7F
100
AcDbEntity
  8
LC-003-002-----0
  6
AUSGEZOGEN
 62
           1
100
AcDbLine
 10
20.349911
 20
55.628773
 30
0.0
 11
32.349911
 21
55.628773
 31
0.0
  0
LINE
  5
80
100
AcDbEntity
  8
LC-005-002-RND-0
  6
STRICHPUNKT
 62
           2
100
AcDbLine
 10
16.296144838536
 20
57.628773
 30
0.0
 11
36.702667149037
 21
57.628773
 31
0.0
  0
LINE
  5
81
100
AcDbEntity
  8
LC-006-012-----0
  6
AUSGEZOGEN
 62
           2
100
AcDbLine
 10
24.349911
 20
60.128773
 30
0.0
 11
24.349911
 21
55.128773
 31
0.0
  0
LINE
  5
82
100
AcDbEntity
  8
LC-003-002-----0
  6
AUSGEZOGEN
 62
           1
100
AcDbLine
 10
20.349911
 20
59.628773
 30
0.0
 11
20.349911
 21
55.628773
 31
0.0
  0
LINE
  5
83
100
AcDbEntity
  8
LC-003-002-----0
  6
AUSGEZOGEN
 62
           1
100
AcDbLine
 10
20.349911
 20
55.628773
 30
0.0
 11
19.195210461621
 21
57.628773
 31
0.0
  0
LINE
  5
84
100
AcDbEntity
  8
LC-003-002-----0
  6
AUSGEZOGEN
 62
           1
100
AcDbLine
 10
20.349911
 20
59.628773
 30
0.0
 11
19.195210461621
 21
57.628773
 31
0.0
  0
LINE
  5
85
100
AcDbEntity
  8
LC-006-012-----0
  6
AUSGEZOGEN
 62
           2
100
AcDbLine
 10
20.211631415647
 20
61.628773
 30
0.0
 11
18.832938958918
 21
59.826504070975
 31
0.0
  0
LINE
  5
86
100
AcDbEntity
  8
LC-006-012-----0
  6
AUSGEZOGEN
 62
           2
100
AcDbLine
 10
18.832938958918
 20
59.826504070975
 30
0.0
 11
17.674837295265
 21
57.005281964993
 31
0.0
  0
LINE
  5
87
100
AcDbEntity
  8
LC-006-012-----0
  6
AUSGEZOGEN
 62
           2
100
AcDbLine
 10
17.674837295265
 20
57.005281964993
 30
0.0
 11
17.729984993534
 21
54.847876825124
 31
0.0
  0
LINE
  5
88
100
AcDbEntity
  8
LC-006-012-----0
  6
AUSGEZOGEN
 62
           2
100
AcDbLine
 10
17.729984993534
 20
54.847876825124
 30
0.0
 11
20.046188320839
 21
52.856425926784
 31
0.0
  0
LINE
  5
89
100
AcDbEntity
  8
LC-006-012-----0
  6
AUSGEZOGEN
 62
           2
100
AcDbLine
 10
20.046188320839
 20
52.856425926784
 30
0.0
 11
23.796231803142
 21
52.026654719142
 31
0.0
  0
LINE
  5
8A
100
AcDbEntity
  8
LC-006-012-----0
  6
AUSGEZOGEN
 62
           2
100
AcDbLine
 10
23.796231803142
 20
52.026654719142
 30
0.0
 11
29.531592423134
 21
52.026654719142
 31
0.0
  0
LINE
  5
8B
100
AcDbEntity
  8
LC-006-012-----0
  6
AUSGEZOGEN
 62
           2
100
AcDbLine
 10
29.531592423134
 20
52.026654719142
 30
0.0
 11
32.349911
 21
52.026654719142
 31
0.0
  0
INSERT
  5
8C
100
AcDbEntity
  8
LC-006-012-----0
  6
AUSGEZOGEN
 62
           2
100
AcDbBlockReference
  2
*X1
 10
0.0
 20
0.0
 30
0.0
  0
LINE
  5
8D
100
AcDbEntity
  8
LC-005-002-RND-0
  6
STRICHPUNKT
 62
           2
100
AcDbLine
 10
16.296144838536
 20
15.628773
 30
0.0
 11
36.702667149037
 21
15.628773
 31
0.0
  0
LINE
  5
8E
100
AcDbEntity
  8
LC-004-006-----0
  6
STRICHLINIE
 62
           2
100
AcDbLine
 10
24.349911
 20
13.128773
 30
0.0
 11
32.349911
 21
13.128773
 31
0.0
  0
LINE
  5
8F
100
AcDbEntity
  8
LC-004-006-----0
  6
STRICHLINIE
 62
           2
100
AcDbLine
 10
24.349911
 20
18.128773
 30
0.0
 11
32.349911
 21
18.128773
 31
0.0
  0
LINE
  5
90
100
AcDbEntity
  8
LC-004-006-----0
  6
STRICHLINIE
 62
           2
100
AcDbLine
 10
20.349911
 20
13.628773
 30
0.0
 11
32.349911
 21
13.628773
 31
0.0
  0
LINE
  5
91
100
AcDbEntity
  8
LC-004-006-----0
  6
STRICHLINIE
 62
           2
100
AcDbLine
 10
20.349911
 20
17.628773
 30
0.0
 11
32.349911
 21
17.628773
 31
0.0
  0
LINE
  5
92
100
AcDbEntity
  8
LC-004-006-----0
  6
STRICHLINIE
 62
           2
100
AcDbLine
 10
24.349911
 20
13.128773
 30
0.0
 11
24.349911
 21
18.128773
 31
0.0
  0
LINE
  5
93
100
AcDbEntity
  8
LC-004-006-----0
  6
STRICHLINIE
 62
           2
100
AcDbLine
 10
20.349911
 20
13.628773
 30
0.0
 11
20.349911
 21
17.628773
 31
0.0
  0
LINE
  5
94
100
AcDbEntity
  8
LC-004-006-----0
  6
STRICHLINIE
 62
           2
100
AcDbLine
 10
20.349911
 20
17.628773
 30
0.0
 11
19.195210461621
 21
15.628773
 31
0.0
  0
LINE
  5
95
100
AcDbEntity
  8
LC-004-006-----0
  6
STRICHLINIE
 62
           2
100
AcDbLine
 10
20.349911
 20
13.628773
 30
0.0
 11
19.195210461621
 21
15.628773
 31
0.0
  0
LINE
  5
96
100
AcDbEntity
  8
LC-003-002-----0
  6
AUSGEZOGEN
 62
           1
100
AcDbLine
 10
-51.026857163305
 20
40.920404727396
 30
0.0
 11
-37.650091
 21
40.920404727396
 31
0.0
  0
LINE
  5
97
100
AcDbEntity
  8
LC-004-006-----0
  6
STRICHLINIE
 62
           2
100
AcDbLine
 10
-37.650089
 20
40.920404727396
 30
0.0
 11
32.349911
 21
40.920404727396
 31
0.0
  0
LINE
  5
98
100
AcDbEntity
  8
LC-003-002-----0
  6
AUSGEZOGEN
 62
           1
100
AcDbLine
 10
32.349911
 20
40.920404727396
 30
0.0
 11
54.022771169389
 21
40.920404727396
 31
0.0
  0
LINE
  5
99
100
AcDbEntity
  8
LC-003-002-----0
  6
AUSGEZOGEN
 62
           1
100
AcDbLine
 10
-51.068290901517
 20
38.64307569119
 30
0.0
 11
-37.650091
 21
38.64307569119
 31
0.0
  0
LINE
  5
9A
100
AcDbEntity
  8
LC-004-006-----0
  6
STRICHLINIE
 62
           2
100
AcDbLine
 10
-37.650089
 20
38.64307569119
 30
0.0
 11
32.349911
 21
38.64307569119
 31
0.0
  0
LINE
  5
9B
100
AcDbEntity
  8
LC-003-002-----0
  6
AUSGEZOGEN
 62
           1
100
AcDbLine
 10
32.349911
 20
38.64307569119
 30
0.0
 11
54.168638250237
 21
38.64307569119
 31
0.0
  0
LINE
  5
9C
100
AcDbEntity
  8
LC-003-002-----0
  6
AUSGEZOGEN
 62
           1
100
AcDbLine
 10
-50.907015637058
 20
34.614469044874
 30
0.0
 11
-37.650091
 21
34.614469044874
 31
0.0
  0
LINE
  5
9D
100
AcDbEntity
  8
LC-004-006-----0
  6
STRICHLINIE
 62
           2
100
AcDbLine
 10
-37.650089
 20
34.614469044874
 30
0.0
 11
32.349911
 21
34.614469044874
 31
0.0
  0
LINE
  5
9E
100
AcDbEntity
  8
LC-003-002-----0
  6
AUSGEZOGEN
 62
           1
100
AcDbLine
 10
32.349911
 20
34.614469044874
 30
0.0
 11
54.426677858058
 21
34.614469044874
 31
0.0
  0
LINE
  5
9F
100
AcDbEntity
  8
LC-003-002-----0
  6
AUSGEZOGEN
 62
           1
100
AcDbLine
 10
-50.815848432257
 20
32.337140228088
 30
0.0
 11
-37.650091
 21
32.337140228088
 31
0.0
  0
LINE
  5
A0
100
AcDbEntity
  8
LC-004-006-----0
  6
STRICHLINIE
 62
           2
100
AcDbLine
 10
-37.650089
 20
32.337140228088
 30
0.0
 11
32.349911
 21
32.337140228088
 31
0.0
  0
LINE
  5
A1
100
AcDbEntity
  8
LC-003-002-----0
  6
AUSGEZOGEN
 62
           1
100
AcDbLine
 10
32.349911
 20
32.337140228088
 30
0.0
 11
54.572544924851
 21
32.337140228088
 31
0.0
  0
LINE
  5
A2
100
AcDbEntity
  8
LC-003-002-----0
  6
AUSGEZOGEN
 62
           1
100
AcDbLine
 10
31.849911
 20
11.628773
 30
0.0
 11
31.849911
 21
52.026654719142
 31
0.0
  0
ENDSEC
  0
SECTION
  2
OBJECTS
  0
DICTIONARY
  5
19
100
AcDbDictionary
  3
ACAD_GROUP
350
1A
  3
ACAD_MLINESTYLE
350
1B
  0
DICTIONARY
  5
1A
102
{ACAD_REACTORS
330
19
102
}
100
AcDbDictionary
  0
DICTIONARY
  5
1B
102
{ACAD_REACTORS
330
19
102
}
100
AcDbDictionary
  3
STANDARD
350
1C
  0
MLINESTYLE
  5
1C
102
{ACAD_REACTORS
330
1B
102
}
100
AcDbMlineStyle
  2
STANDARD
 70
           0
  3

 62
           0
 51
90.0
 52
90.0
 71
           2
 49
0.5
 62
         256
  6
BYLAYER
 49
-0.5
 62
         256
  6
BYLAYER
  0
ENDSEC
  0
EOF
