  0
SECTION
  2
HEADER
  9
$LIMMIN
 10
265.773438
 20
88.289978
  9
$LIMMAX
 10
534.334595
 20
172.591385
  9
$EXTMIN
 10
265.773438
 20
88.289978
  9
$EXTMAX
 10
534.334595
 20
172.591385
  0
ENDSEC
  0
SECTION
  2
TABLES
  0
TABLE
  2
LTYPE
 70
     3
  0
LTYPE
  2
CONTINUOUS
 70
    64
  3
Ausgezogene Linie
 72
    65
 73
     0
 40
0.0
  0
LTYPE
  2
DASHED
 70
    64
  3
__ __ __ __ __ __ __ __ __ __ __ __ __ __ __
 72
    65
 73
     2
 40
0.75
 49
0.5
 49
-0.25
  0
LTYPE
  2
DASHDOT
 70
    64
  3
__ . __ . __ . __ . __ . __ . __ . __ . __ . __
 72
    65
 73
     4
 40
1.0
 49
0.5
 49
-0.25
 49
0.0
 49
-0.25
  0
ENDTAB
  0
TABLE
  2
LAYER
 70
     4
  0
LAYER
  2
LC-003-002-----0
 70
    64
 62
     7
  6
CONTINUOUS
  0
LAYER
  2
LC-005-002-RND-0
 70
    64
 62
     7
  6
CONTINUOUS
  0
LAYER
  2
LC-004-006-----0
 70
    64
 62
     7
  6
CONTINUOUS
  0
LAYER
  2
LC-006-012-----0
 70
    64
 62
     7
  6
CONTINUOUS
  0
ENDTAB
  0
TABLE
  2
STYLE
 70
     1
  0
STYLE
  2
TXT8
 70
    64
 40
0.0
 41
1.0
 50
0.0
 71
     0
 42
3.500000
  3
TXT8
  4

  0
ENDTAB
  0
ENDSEC
  0
SECTION
  2
BLOCKS
  0
ENDSEC
  0
SECTION
  2
ENTITIES
  0
LINE
  8
LC-005-002-RND-0
 62
     2
  6
DASHDOT
 10
265.773438
 20
130.818161
 11
425.322906
 21
130.818161
  0
LINE
  8
LC-003-002-----0
 62
     1
  6
CONTINUOUS
 10
290.562347
 20
168.318161
 11
302.412354
 21
168.318161
  0
LINE
  8
LC-003-002-----0
 62
     1
  6
CONTINUOUS
 10
290.562347
 20
93.318161
 11
302.412354
 21
93.318161
  0
LINE
  8
LC-003-002-----0
 62
     1
  6
CONTINUOUS
 10
288.812347
 20
166.568161
 11
288.812347
 21
95.068161
  0
LINE
  8
LC-003-002-----0
 62
     1
  6
CONTINUOUS
 10
400.812347
 20
166.568161
 11
400.812347
 21
95.068161
  0
ARC
  8
LC-003-002-----0
 62
     1
  6
CONTINUOUS
 10
290.562347
 20
166.568161
 40
1.750000
 50
90.000003
 51
180.000009
  0
ARC
  8
LC-003-002-----0
 62
     1
  6
CONTINUOUS
 10
290.562347
 20
95.068161
 40
1.750000
 50
180.000009
 51
269.999997
  0
ARC
  8
LC-003-002-----0
 62
     1
  6
CONTINUOUS
 10
399.062347
 20
95.068161
 40
1.750000
 50
269.999997
 51
0.000000
  0
ARC
  8
LC-003-002-----0
 62
     1
  6
CONTINUOUS
 10
399.062347
 20
166.568161
 40
1.750000
 50
0.000000
 51
90.000003
  0
LINE
  8
LC-005-002-RND-0
 62
     2
  6
DASHDOT
 10
344.812347
 20
170.608688
 11
344.812347
 21
91.452881
  0
LINE
  8
LC-003-002-----0
 62
     1
  6
CONTINUOUS
 10
346.812347
 20
168.318161
 11
346.812347
 21
138.318161
  0
LINE
  8
LC-003-002-----0
 62
     1
  6
CONTINUOUS
 10
342.812347
 20
168.318161
 11
342.812347
 21
138.318161
  0
ARC
  8
LC-003-002-----0
 62
     1
  6
CONTINUOUS
 10
344.812347
 20
168.318161
 40
2.000000
 50
180.000009
 51
0.000000
  0
ARC
  8
LC-003-002-----0
 62
     1
  6
CONTINUOUS
 10
344.812347
 20
93.318161
 40
2.000000
 50
0.000000
 51
180.000009
  0
LINE
  8
LC-003-002-----0
 62
     1
  6
CONTINUOUS
 10
346.812347
 20
168.318161
 11
384.562347
 21
168.318161
  0
LINE
  8
LC-003-002-----0
 62
     1
  6
CONTINUOUS
 10
346.812347
 20
93.318161
 11
384.562347
 21
93.318161
  0
LINE
  8
LC-003-002-----0
 62
     1
  6
CONTINUOUS
 10
384.562347
 20
168.318161
 11
384.562347
 21
93.318161
  0
LINE
  8
LC-003-002-----0
 62
     1
  6
CONTINUOUS
 10
387.212341
 20
168.318161
 11
387.212341
 21
93.318161
  0
LINE
  8
LC-003-002-----0
 62
     1
  6
CONTINUOUS
 10
271.235046
 20
154.318161
 11
288.812347
 21
154.318161
  0
LINE
  8
LC-003-002-----0
 62
     1
  6
CONTINUOUS
 10
270.479340
 20
107.318161
 11
288.812347
 21
107.318161
  0
LINE
  8
LC-003-002-----0
 62
     1
  6
CONTINUOUS
 10
387.212341
 20
93.318161
 11
399.062347
 21
93.318161
  0
LINE
  8
LC-006-012-----0
 62
     2
  6
CONTINUOUS
 10
270.479340
 20
107.318161
 11
271.578552
 21
114.457008
  0
LINE
  8
LC-003-002-----0
 62
     1
  6
CONTINUOUS
 10
384.562347
 20
94.818161
 11
387.212341
 21
94.818161
  0
LINE
  8
LC-003-002-----0
 62
     1
  6
CONTINUOUS
 10
387.212341
 20
168.318161
 11
399.062347
 21
168.318161
  0
LINE
  8
LC-006-012-----0
 62
     2
  6
CONTINUOUS
 10
271.578552
 20
114.457008
 11
270.516663
 21
128.400757
  0
LINE
  8
LC-003-002-----0
 62
     1
  6
CONTINUOUS
 10
384.562347
 20
166.818161
 11
387.212341
 21
166.818161
  0
LINE
  8
LC-006-012-----0
 62
     2
  6
CONTINUOUS
 10
270.516663
 20
128.400757
 11
272.192108
 21
142.117996
  0
LINE
  8
LC-006-012-----0
 62
     2
  6
CONTINUOUS
 10
272.192108
 20
142.117996
 11
271.235046
 21
154.318161
  0
LINE
  8
LC-006-012-----0
 62
     2
  6
CONTINUOUS
 10
422.067261
 20
107.318161
 11
422.880493
 21
115.820709
  0
LINE
  8
LC-006-012-----0
 62
     2
  6
CONTINUOUS
 10
422.880493
 20
115.820709
 11
420.131317
 21
129.759735
  0
LINE
  8
LC-006-012-----0
 62
     2
  6
CONTINUOUS
 10
420.131317
 20
129.759735
 11
420.898254
 21
143.816727
  0
LINE
  8
LC-006-012-----0
 62
     2
  6
CONTINUOUS
 10
420.898254
 20
143.816727
 11
419.722168
 21
154.318161
  0
LINE
  8
LC-004-006-----0
 62
     2
  6
DASHED
 10
288.812347
 20
154.318161
 11
400.812347
 21
154.318161
  0
LINE
  8
LC-003-002-----0
 62
     1
  6
CONTINUOUS
 10
400.812347
 20
154.318161
 11
419.722168
 21
154.318161
  0
LINE
  8
LC-004-006-----0
 62
     2
  6
DASHED
 10
288.812347
 20
107.318161
 11
400.812347
 21
107.318161
  0
LINE
  8
LC-003-002-----0
 62
     1
  6
CONTINUOUS
 10
400.812347
 20
107.318161
 11
422.067261
 21
107.318161
  0
LINE
  8
LC-003-002-----0
 62
     1
  6
CONTINUOUS
 10
305.062347
 20
168.318161
 11
305.062347
 21
93.318161
  0
LINE
  8
LC-003-002-----0
 62
     1
  6
CONTINUOUS
 10
302.412354
 20
168.318161
 11
302.412354
 21
93.318161
  0
LINE
  8
LC-003-002-----0
 62
     1
  6
CONTINUOUS
 10
305.062347
 20
94.818161
 11
302.412354
 21
94.818161
  0
LINE
  8
LC-003-002-----0
 62
     1
  6
CONTINUOUS
 10
305.062347
 20
166.818161
 11
302.412354
 21
166.818161
  0
LINE
  8
LC-003-002-----0
 62
     1
  6
CONTINUOUS
 10
305.062347
 20
93.318161
 11
342.812347
 21
93.318161
  0
LINE
  8
LC-003-002-----0
 62
     1
  6
CONTINUOUS
 10
305.062347
 20
168.318161
 11
342.812347
 21
168.318161
  0
LINE
  8
LC-005-002-RND-0
 62
     2
  6
DASHDOT
 10
451.046021
 20
130.818161
 11
534.334595
 21
130.818161
  0
LINE
  8
LC-005-002-RND-0
 62
     2
  6
DASHDOT
 10
492.696442
 20
172.591385
 11
492.696442
 21
88.289978
  0
CIRCLE
  8
LC-003-002-----0
 62
     1
  6
CONTINUOUS
 10
492.696442
 20
130.818161
 40
37.500000
  0
CIRCLE
  8
LC-003-002-----0
 62
     1
  6
CONTINUOUS
 10
492.696442
 20
130.818161
 40
35.000000
  0
LINE
  8
LC-004-006-----0
 62
     2
  6
DASHED
 10
525.196472
 20
138.318161
 11
529.438782
 21
138.318161
  0
LINE
  8
LC-004-006-----0
 62
     2
  6
DASHED
 10
525.196472
 20
123.318161
 11
529.438782
 21
123.318161
  0
LINE
  8
LC-004-006-----0
 62
     2
  6
DASHED
 10
494.696442
 20
168.264786
 11
494.696442
 21
160.922714
  0
LINE
  8
LC-004-006-----0
 62
     2
  6
DASHED
 10
525.196472
 20
123.318161
 11
525.196472
 21
138.318161
  0
LINE
  8
LC-004-006-----0
 62
     2
  6
DASHED
 10
490.696442
 20
168.264786
 11
490.696442
 21
160.922714
  0
LINE
  8
LC-004-006-----0
 62
     2
  6
DASHED
 10
490.696442
 20
93.371536
 11
490.696442
 21
100.713608
  0
LINE
  8
LC-004-006-----0
 62
     2
  6
DASHED
 10
494.696442
 20
93.371536
 11
494.696442
 21
100.713608
  0
LINE
  8
LC-005-002-RND-0
 62
     2
  6
DASHDOT
 10
496.253723
 20
150.992523
 11
497.234894
 21
156.556900
  0
ARC
  8
LC-003-002-----0
 62
     1
  6
CONTINUOUS
 10
496.864014
 20
154.453552
 40
2.000000
 50
186.801839
 51
333.198162
  0
ARC
  8
LC-003-002-----0
 62
     1
  6
CONTINUOUS
 10
488.528900
 20
154.453552
 40
2.000000
 50
206.801835
 51
353.198162
  0
LINE
  8
LC-005-002-RND-0
 62
     2
  6
DASHDOT
 10
489.139160
 20
150.992523
 11
488.158020
 21
156.556900
  0
LINE
  8
LC-005-002-RND-0
 62
     2
  6
DASHDOT
 10
489.139160
 20
110.643806
 11
488.158020
 21
105.079430
  0
ARC
  8
LC-003-002-----0
 62
     1
  6
CONTINUOUS
 10
488.528900
 20
107.182777
 40
2.000000
 50
6.801838
 51
153.198165
  0
ARC
  8
LC-003-002-----0
 62
     1
  6
CONTINUOUS
 10
496.864014
 20
107.182777
 40
2.000000
 50
26.801838
 51
173.198161
  0
LINE
  8
LC-005-002-RND-0
 62
     2
  6
DASHDOT
 10
496.253723
 20
110.643806
 11
497.234894
 21
105.079430
  0
ARC
  8
LC-003-002-----0
 62
     1
  6
CONTINUOUS
 10
492.696442
 20
130.818161
 40
23.500000
 50
84.673254
 51
95.326751
  0
ARC
  8
LC-003-002-----0
 62
     1
  6
CONTINUOUS
 10
492.696442
 20
130.818161
 40
23.500000
 50
264.673249
 51
275.326746
  0
ARC
  8
LC-003-002-----0
 62
     1
  6
CONTINUOUS
 10
492.696442
 20
130.818161
 40
23.500000
 50
104.673250
 51
255.326750
  0
ARC
  8
LC-003-002-----0
 62
     1
  6
CONTINUOUS
 10
492.696442
 20
130.818161
 40
23.500000
 50
284.673252
 51
75.326748
  0
LINE
  8
LC-003-002-----0
 62
     1
  6
CONTINUOUS
 10
422.140564
 20
108.084587
 11
400.812347
 21
108.084587
  0
ARC
  8
LC-003-002-----0
 62
     1
  6
CONTINUOUS
 10
492.696442
 20
130.818161
 40
24.200001
 50
103.054236
 51
256.945764
  0
ARC
  8
LC-003-002-----0
 62
     1
  6
CONTINUOUS
 10
488.528900
 20
107.182777
 40
1.300000
 50
342.680404
 51
177.319593
  0
ARC
  8
LC-003-002-----0
 62
     1
  6
CONTINUOUS
 10
492.696442
 20
130.818161
 40
24.200001
 50
263.054235
 51
276.945760
  0
ARC
  8
LC-003-002-----0
 62
     1
  6
CONTINUOUS
 10
496.864014
 20
107.182777
 40
1.300000
 50
2.680404
 51
197.319593
  0
ARC
  8
LC-003-002-----0
 62
     1
  6
CONTINUOUS
 10
492.696442
 20
130.818161
 40
24.200001
 50
283.054238
 51
76.945762
  0
ARC
  8
LC-003-002-----0
 62
     1
  6
CONTINUOUS
 10
496.864014
 20
154.453552
 40
1.300000
 50
162.680407
 51
357.319596
  0
ARC
  8
LC-003-002-----0
 62
     1
  6
CONTINUOUS
 10
492.696442
 20
130.818161
 40
24.200001
 50
83.054240
 51
96.945765
  0
ARC
  8
LC-003-002-----0
 62
     1
  6
CONTINUOUS
 10
488.528900
 20
154.453552
 40
1.300000
 50
182.680407
 51
17.319596
  0
LINE
  8
LC-004-006-----0
 62
     2
  6
DASHED
 10
400.812347
 20
108.084587
 11
288.812347
 21
108.084587
  0
LINE
  8
LC-003-002-----0
 62
     1
  6
CONTINUOUS
 10
288.812347
 20
108.084587
 11
270.597351
 21
108.084587
  0
LINE
  8
LC-004-006-----0
 62
     2
  6
DASHED
 10
400.812347
 20
153.551743
 11
288.812347
 21
153.551743
  0
LINE
  8
LC-003-002-----0
 62
     1
  6
CONTINUOUS
 10
288.812347
 20
153.551743
 11
271.295166
 21
153.551743
  0
LINE
  8
LC-003-002-----0
 62
     1
  6
CONTINUOUS
 10
419.807983
 20
153.551743
 11
400.812347
 21
153.551743
  0
LINE
  8
LC-003-002-----0
 62
     1
  6
CONTINUOUS
 10
367.312347
 20
138.318161
 11
322.312347
 21
138.318161
  0
LINE
  8
LC-003-002-----0
 62
     1
  6
CONTINUOUS
 10
367.312347
 20
123.318161
 11
322.312347
 21
123.318161
  0
LINE
  8
LC-005-002-RND-0
 62
     2
  6
DASHDOT
 10
367.312347
 20
141.907059
 11
367.312347
 21
120.200172
  0
ARC
  8
LC-003-002-----0
 62
     1
  6
CONTINUOUS
 10
367.312347
 20
130.818161
 40
7.500000
 50
269.999997
 51
90.000003
  0
LINE
  8
LC-005-002-RND-0
 62
     2
  6
DASHDOT
 10
322.312347
 20
141.907059
 11
322.312347
 21
120.200172
  0
ARC
  8
LC-003-002-----0
 62
     1
  6
CONTINUOUS
 10
322.312347
 20
130.818161
 40
7.500000
 50
90.000003
 51
269.999997
  0
LINE
  8
LC-003-002-----0
 62
     1
  6
CONTINUOUS
 10
342.812347
 20
123.318161
 11
342.812347
 21
93.318161
  0
LINE
  8
LC-003-002-----0
 62
     1
  6
CONTINUOUS
 10
346.812347
 20
123.318161
 11
346.812347
 21
93.318161
  0
ENDSEC
  0
EOF
