  0
SECTION
  2
HEADER
  9
$LIMMIN
 10
119.818733
 20
292.875214
  9
$LIMMAX
 10
236.703217
 20
318.875214
  9
$EXTMIN
 10
119.818733
 20
292.875214
  9
$EXTMAX
 10
236.703217
 20
318.875214
  0
ENDSEC
  0
SECTION
  2
TABLES
  0
TABLE
  2
LTYPE
 70
     3
  0
LTYPE
  2
CONTINUOUS
 70
    64
  3
Ausgezogene Linie
 72
    65
 73
     0
 40
0.0
  0
LTYPE
  2
DASHED
 70
    64
  3
__ __ __ __ __ __ __ __ __ __ __ __ __ __ __
 72
    65
 73
     2
 40
0.75
 49
0.5
 49
-0.25
  0
LTYPE
  2
DASHDOT
 70
    64
  3
__ . __ . __ . __ . __ . __ . __ . __ . __ . __
 72
    65
 73
     4
 40
1.0
 49
0.5
 49
-0.25
 49
0.0
 49
-0.25
  0
ENDTAB
  0
TABLE
  2
LAYER
 70
     4
  0
LAYER
  2
LC-003-002-----0
 70
    64
 62
     7
  6
CONTINUOUS
  0
LAYER
  2
LC-004-006-----0
 70
    64
 62
     7
  6
CONTINUOUS
  0
LAYER
  2
LC-006-012-----0
 70
    64
 62
     7
  6
CONTINUOUS
  0
LAYER
  2
LC-007-004-----0
 70
    64
 62
     7
  6
CONTINUOUS
  0
ENDTAB
  0
TABLE
  2
STYLE
 70
     1
  0
STYLE
  2
TXT8
 70
    64
 40
0.0
 41
1.0
 50
0.0
 71
     0
 42
3.500000
  3
TXT8
  4

  0
ENDTAB
  0
ENDSEC
  0
SECTION
  2
BLOCKS
  0
ENDSEC
  0
SECTION
  2
ENTITIES
  0
LINE
  8
LC-004-006-----0
 62
     2
  6
DASHDOT
 10
119.818733
 20
305.875214
 11
236.703217
 21
305.875214
  0
LINE
  8
LC-003-002-----0
 62
     1
  6
CONTINUOUS
 10
145.024139
 20
318.875214
 11
153.224136
 21
318.875214
  0
LINE
  8
LC-003-002-----0
 62
     1
  6
CONTINUOUS
 10
145.024139
 20
292.875214
 11
153.224136
 21
292.875214
  0
LINE
  8
LC-003-002-----0
 62
     1
  6
CONTINUOUS
 10
144.024139
 20
317.875214
 11
144.024139
 21
293.875214
  0
LINE
  8
LC-003-002-----0
 62
     1
  6
CONTINUOUS
 10
212.024139
 20
317.875214
 11
212.024139
 21
293.875214
  0
LINE
  8
LC-003-002-----0
 62
     1
  6
CONTINUOUS
 10
124.124290
 20
313.875214
 11
144.024139
 21
313.875214
  0
LINE
  8
LC-003-002-----0
 62
     1
  6
CONTINUOUS
 10
122.725983
 20
297.875214
 11
144.024139
 21
297.875214
  0
LINE
  8
LC-007-004-----0
 62
     2
  6
CONTINUOUS
 10
232.582458
 20
297.875214
 11
233.094833
 21
301.184326
  0
LINE
  8
LC-007-004-----0
 62
     2
  6
CONTINUOUS
 10
233.094833
 20
301.184326
 11
232.066895
 21
309.136383
  0
LINE
  8
LC-007-004-----0
 62
     2
  6
CONTINUOUS
 10
232.066895
 20
309.136383
 11
233.229721
 21
313.875214
  0
LINE
  8
LC-006-012-----0
 62
     2
  6
DASHED
 10
144.024139
 20
313.875214
 11
212.024139
 21
313.875214
  0
LINE
  8
LC-003-002-----0
 62
     1
  6
CONTINUOUS
 10
212.024139
 20
313.875214
 11
233.229721
 21
313.875214
  0
LINE
  8
LC-006-012-----0
 62
     2
  6
DASHED
 10
144.024139
 20
297.875214
 11
212.024139
 21
297.875214
  0
LINE
  8
LC-003-002-----0
 62
     1
  6
CONTINUOUS
 10
212.024139
 20
297.875214
 11
232.582458
 21
297.875214
  0
LINE
  8
LC-007-004-----0
 62
     2
  6
CONTINUOUS
 10
122.725983
 20
297.875214
 11
123.586456
 21
302.598389
  0
LINE
  8
LC-007-004-----0
 62
     2
  6
CONTINUOUS
 10
123.586456
 20
302.598389
 11
123.188248
 21
310.542755
  0
LINE
  8
LC-007-004-----0
 62
     2
  6
CONTINUOUS
 10
123.188248
 20
310.542755
 11
124.124290
 21
313.875214
  0
LINE
  8
LC-003-002-----0
 62
     1
  6
CONTINUOUS
 10
201.524139
 20
292.875214
 11
201.524139
 21
318.875214
  0
LINE
  8
LC-003-002-----0
 62
     1
  6
CONTINUOUS
 10
202.824142
 20
292.875214
 11
202.824142
 21
318.875214
  0
LINE
  8
LC-003-002-----0
 62
     1
  6
CONTINUOUS
 10
201.524139
 20
318.375214
 11
202.824142
 21
318.375214
  0
LINE
  8
LC-003-002-----0
 62
     1
  6
CONTINUOUS
 10
201.524139
 20
293.375214
 11
202.824142
 21
293.375214
  0
LINE
  8
LC-003-002-----0
 62
     1
  6
CONTINUOUS
 10
202.824142
 20
292.875214
 11
211.024139
 21
292.875214
  0
LINE
  8
LC-003-002-----0
 62
     1
  6
CONTINUOUS
 10
202.824142
 20
318.875214
 11
211.024139
 21
318.875214
  0
LINE
  8
LC-003-002-----0
 62
     1
  6
CONTINUOUS
 10
154.524139
 20
292.875214
 11
154.524139
 21
318.875214
  0
LINE
  8
LC-003-002-----0
 62
     1
  6
CONTINUOUS
 10
153.224136
 20
292.875214
 11
153.224136
 21
318.875214
  0
LINE
  8
LC-003-002-----0
 62
     1
  6
CONTINUOUS
 10
154.524139
 20
318.375214
 11
153.224136
 21
318.375214
  0
LINE
  8
LC-003-002-----0
 62
     1
  6
CONTINUOUS
 10
154.524139
 20
293.375214
 11
153.224136
 21
293.375214
  0
LINE
  8
LC-003-002-----0
 62
     1
  6
CONTINUOUS
 10
154.524139
 20
292.875214
 11
201.524139
 21
292.875214
  0
LINE
  8
LC-003-002-----0
 62
     1
  6
CONTINUOUS
 10
154.524139
 20
318.875214
 11
201.524139
 21
318.875214
  0
ARC
  8
LC-003-002-----0
 62
     1
  6
CONTINUOUS
 10
145.024139
 20
317.875214
 40
1.000000
 50
90.000003
 51
180.000009
  0
ARC
  8
LC-003-002-----0
 62
     1
  6
CONTINUOUS
 10
145.024139
 20
293.875214
 40
1.000000
 50
180.000009
 51
269.999997
  0
ARC
  8
LC-003-002-----0
 62
     1
  6
CONTINUOUS
 10
211.024139
 20
293.875214
 40
1.000000
 50
269.999997
 51
0.000000
  0
ARC
  8
LC-003-002-----0
 62
     1
  6
CONTINUOUS
 10
211.024139
 20
317.875214
 40
1.000000
 50
0.000000
 51
90.000003
  0
ENDSEC
  0
EOF
