  0
SECTION
  2
HEADER
  9
$ACADVER
  1
AC1014
  9
$ACADMAINTVER
 70
           0
  9
$DWGCODEPAGE
  3
DOS850
  9
$INSBASE
 10
0.0
 20
0.0
 30
0.0
  9
$EXTMIN
 10
330.042094666667
 20
121.174316666667
 30
0.0
  9
$EXTMAX
 10
797.918925333333
 20
236.042643333333
 30
0.0
  9
$LIMMIN
 10
330.042094666667
 20
121.174316666667
  9
$LIMMAX
 10
797.918925333333
 20
236.042643333333
  9
$ORTHOMODE
 70
           0
  9
$REGENMODE
 70
           1
  9
$FILLMODE
 70
           1
  9
$QTEXTMODE
 70
           0
  9
$MIRRTEXT
 70
           1
  9
$DRAGMODE
 70
           2
  9
$LTSCALE
 40
5.0
  9
$OSMODE
 70
           0
  9
$ATTMODE
 70
           1
  9
$TEXTSIZE
 40
0.2
  9
$TRACEWID
 40
0.05
  9
$TEXTSTYLE
  7
TXT
  9
$CLAYER
  8
0
  9
$CELTYPE
  6
CONTINUOUS
  9
$CECOLOR
 62
         256
  9
$CELTSCALE
 40
1.0
  9
$DELOBJ
 70
           1
  9
$DISPSILH
 70
           0
  9
$DIMSCALE
 40
1.0
  9
$DIMASZ
 40
3.5
  9
$DIMEXO
 40
0.0625
  9
$DIMDLI
 40
0.38
  9
$DIMRND
 40
0.0
  9
$DIMDLE
 40
0.0
  9
$DIMEXE
 40
0.18
  9
$DIMTP
 40
0.0
  9
$DIMTM
 40
0.0
  9
$DIMTXT
 40
3.5
  9
$DIMCEN
 40
0.09
  9
$DIMTSZ
 40
0.0
  9
$DIMTOL
 70
           0
  9
$DIMLIM
 70
           0
  9
$DIMTIH
 70
           1
  9
$DIMTOH
 70
           1
  9
$DIMSE1
 70
           0
  9
$DIMSE2
 70
           0
  9
$DIMTAD
 70
           0
  9
$DIMZIN
 70
           0
  9
$DIMBLK
  1

  9
$DIMASO
 70
           1
  9
$DIMSHO
 70
           1
  9
$DIMPOST
  1

  9
$DIMAPOST
  1

  9
$DIMALT
 70
           0
  9
$DIMALTD
 70
           2
  9
$DIMALTF
 40
25.4
  9
$DIMLFAC
 40
1.0
  9
$DIMTOFL
 70
           0
  9
$DIMTVP
 40
0.0
  9
$DIMTIX
 70
           0
  9
$DIMSOXD
 70
           0
  9
$DIMSAH
 70
           0
  9
$DIMBLK1
  1

  9
$DIMBLK2
  1

  9
$DIMSTYLE
  2
STANDARD
  9
$DIMCLRD
 70
           0
  9
$DIMCLRE
 70
           0
  9
$DIMCLRT
 70
           0
  9
$DIMTFAC
 40
1.0
  9
$DIMGAP
 40
0.09
  9
$DIMJUST
 70
           0
  9
$DIMSD1
 70
           0
  9
$DIMSD2
 70
           0
  9
$DIMTOLJ
 70
           1
  9
$DIMTZIN
 70
           0
  9
$DIMALTZ
 70
           0
  9
$DIMALTTZ
 70
           0
  9
$DIMFIT
 70
           3
  9
$DIMUPT
 70
           0
  9
$DIMUNIT
 70
           2
  9
$DIMDEC
 70
           4
  9
$DIMTDEC
 70
           4
  9
$DIMALTU
 70
           2
  9
$DIMALTTD
 70
           2
  9
$DIMTXSTY
  7
TXT
  9
$DIMAUNIT
 70
           0
  9
$LUNITS
 70
           2
  9
$LUPREC
 70
           2
  9
$SKETCHINC
 40
0.1
  9
$FILLETRAD
 40
0.0
  9
$AUNITS
 70
           0
  9
$AUPREC
 70
           2
  9
$MENU
  1
acad
  9
$ELEVATION
 40
0.0
  9
$PELEVATION
 40
0.0
  9
$THICKNESS
 40
0.0
  9
$LIMCHECK
 70
           0
  9
$BLIPMODE
 70
           1
  9
$CHAMFERA
 40
0.0
  9
$CHAMFERB
 40
0.0
  9
$CHAMFERC
 40
0.0
  9
$CHAMFERD
 40
0.0
  9
$SKPOLY
 70
           0
  9
$TDCREATE
 40
0.000000000
  9
$TDUPDATE
 40
0.000000000
  9
$TDINDWG
 40
0.0000000000
  9
$TDUSRTIMER
 40
0.0000000000
  9
$USRTIMER
 70
           1
  9
$ANGBASE
 50
0.0
  9
$ANGDIR
 70
           0
  9
$PDMODE
 70
           2
  9
$PDSIZE
 40
0.5
  9
$PLINEWID
 40
0.0
  9
$COORDS
 70
           0
  9
$SPLFRAME
 70
           0
  9
$SPLINETYPE
 70
           6
  9
$SPLINESEGS
 70
           8
  9
$ATTDIA
 70
           0
  9
$ATTREQ
 70
           1
  9
$HANDLING
 70
           1
  9
$HANDSEED
  5
10B
  9
$SURFTAB1
 70
           6
  9
$SURFTAB2
 70
           6
  9
$SURFTYPE
 70
           6
  9
$SURFU
 70
           6
  9
$SURFV
 70
           6
  9
$UCSNAME
  2

  9
$UCSORG
 10
0.0
 20
0.0
 30
0.0
  9
$UCSXDIR
 10
1.0
 20
0.0
 30
0.0
  9
$UCSYDIR
 10
0.0
 20
1.0
 30
0.0
  9
$PUCSNAME
  2

  9
$PUCSORG
 10
0.0
 20
0.0
 30
0.0
  9
$PUCSXDIR
 10
1.0
 20
0.0
 30
0.0
  9
$PUCSYDIR
 10
0.0
 20
1.0
 30
0.0
  9
$USERI1
 70
           0
  9
$USERI2
 70
           0
  9
$USERI3
 70
           0
  9
$USERI4
 70
           0
  9
$USERI5
 70
           0
  9
$USERR1
 40
0.0
  9
$USERR2
 40
0.0
  9
$USERR3
 40
0.0
  9
$USERR4
 40
0.0
  9
$USERR5
 40
0.0
  9
$WORLDVIEW
 70
           1
  9
$SHADEDGE
 70
           3
  9
$SHADEDIF
 70
          70
  9
$TILEMODE
 70
           1
  9
$MAXACTVP
 70
          16
  9
$PINSBASE
 10
0.0
 20
0.0
 30
0.0
  9
$PLIMCHECK
 70
           0
  9
$PEXTMIN
 10
1.000000000000E+20
 20
1.000000000000E+20
 30
1.000000000000E+20
  9
$PEXTMAX
 10
-1.000000000000E+20
 20
-1.000000000000E+20
 30
-1.000000000000E+20
  9
$PLIMMIN
 10
0.0
 20
0.0
  9
$PLIMMAX
 10
12.0
 20
9.0
  9
$UNITMODE
 70
           0
  9
$VISRETAIN
 70
           0
  9
$PLINEGEN
 70
           1
  9
$PSLTSCALE
 70
           0
  9
$TREEDEPTH
 70
        3020
  9
$PICKSTYLE
 70
           1
  9
$CMLSTYLE
  2
STANDARD
  9
$CMLJUST
 70
           0
  9
$CMLSCALE
 40
1.0
  9
$PROXYGRAPHICS
 70
           0
  9
$MEASUREMENT
 70
           0
  0
ENDSEC
  0
SECTION
  2
CLASSES
  0
CLASS
  1
LWPOLYLINE
  2
AcDbPolyline
  3
"AutoCAD"
 90
        0
280
           0
281
           1
  0
CLASS
  1
IMAGE
  2
AcDbRasterImage
  3
ISM
 90
      127
280
           0
281
           1
  0
CLASS
  1
OLE2FRAME
  2
AcDbOle2Frame
  3
""
 90
        0
280
           0
281
           1
  0
CLASS
  1
HATCH
  2
AcDbHatch
  3
"ACAD_SEDONA"
 90
        0
280
           0
281
           1
  0
CLASS
  1
DICTIONARYVAR
  2
AcDbDictionaryVar
  3
"AutoCAD"
 90
        0
280
           0
281
           0
  0
CLASS
  1
RASTERVARIABLES
  2
AcDbRasterVariables
  3
ISM
 90
        0
280
           0
281
           0
  0
CLASS
  1
IMAGEDEF
  2
AcDbRasterImageDef
  3
ISM
 90
        0
280
           0
281
           0
  0
CLASS
  1
IMAGEDEF_REACTOR
  2
AcDbRasterImageDefReactor
  3
ISM
 90
        1
280
           0
281
           0
  0
CLASS
  1
IDBUFFER
  2
AcDbIdBuffer
  3
"Acad"
 90
        0
280
           0
281
           0
  0
CLASS
  1
SPATIAL_FILTER
  2
AcDbSpatialFilter
  3
"Acad"
 90
        0
280
           0
281
           0
  0
CLASS
  1
XRECORD
  2
AcDbXrecord
  3
"<Built In>"
 90
        0
280
           0
281
           0
  0
CLASS
  1
SORTENTSTABLE
  2
AcDbSortentsTable
  3
"AutoCAD"
 90
        0
280
           0
281
           0
  0
CLASS
  1
LAYER_INDEX
  2
AcDbLayerIndex
  3
"Acad"
 90
        0
280
           0
281
           0
  0
CLASS
  1
SPATIAL_INDEX
  2
AcDbSpatialIndex
  3
"Acad"
 90
        0
280
           0
281
           0
  0
CLASS
  1
OBJECT_PTR
  2
CAseDLPNTableRecord
  3
"ASE-LPNTableRecord"
 90
        1
280
           0
281
           0
  0
CLASS
  1
LAYOUT
  2
AcDbLayout
  3
"AutoCAD 2000"
 90
        1
280
           0
281
           0
  0
CLASS
  1
PLOTSETTINGS
  2
AcDbPlotSettings
  3
"AutoCAD 2000"
 90
        1
280
           0
281
           0
  0
CLASS
  1
ACDBDICTIONARYWDFLT
  2
AcDbDictionaryWithDefault
  3
"AutoCAD 2000"
 90
        1
280
           0
281
           0
  0
CLASS
  1
ACDBPLACEHOLDER
  2
AcDbPlaceHolder
  3
"AutoCAD 2000"
 90
        1
280
           0
281
           0
  0
CLASS
  1
VBA_PROJECT
  2
AcDbVbaProject
  3
"acadvba"
 90
        1
280
           0
281
           0
  0
CLASS
  1
WIPEOUT
  2
AcDbWipeout
  3
WipeOut|AutoCAD Express Tool|expresstools@autodesk.com
 90
      127
280
           0
281
           1
  0
CLASS
  1
WIPEOUTVARIABLES
  2
AcDbWipeoutVariables
  3
WipeOut|AutoCAD Express Tool|expresstools@autodesk.com
 90
        0
280
           0
281
           0
  0
CLASS
  1
RTEXT
  2
RText
  3
RText|AutoCAD Express Tool|expresstools@autodesk.com
 90
        0
280
           0
281
           1
  0
CLASS
  1
ARCALIGNEDTEXT
  2
AcDbArcAlignedText
  3
ATEXT|AutoCAD Express Tool|expresstools@autodesk.com
 90
        0
280
           0
281
           1
  0
ENDSEC
  0
SECTION
  2
TABLES
  0
TABLE
  2
VPORT
  5
7
100
AcDbSymbolTable
 70
           1
  0
VPORT
  5
15
100
AcDbSymbolTableRecord
100
AcDbViewportTableRecord
  2
*ACTIVE
 70
           0
 10
0.0
 20
0.0
 11
1.0
 21
1.0
 12
6.591288
 22
4.579184
 13
0.0
 23
0.0
 14
1.0
 24
1.0
 15
0.0
 25
0.0
 16
0.0
 26
0.0
 36
1.0
 17
0.0
 27
0.0
 37
0.0
 40
9.158369
 41
0.688564
 42
50.0
 43
0.0
 44
0.0
 50
0.0
 51
0.0
 71
           0
 72
         100
 73
           1
 74
           1
 75
           0
 76
           0
 77
           0
 78
           0
  0
ENDTAB
  0
TABLE
  2
LTYPE
  5
4
100
AcDbSymbolTable
 70
           6
  0
LTYPE
  5
11
100
AcDbSymbolTableRecord
100
AcDbLinetypeTableRecord
  2
BYBLOCK
 70
          64
  3

 72
          65
 73
           0
 40
0.0
  0
LTYPE
  5
12
100
AcDbSymbolTableRecord
100
AcDbLinetypeTableRecord
  2
BYLAYER
 70
          64
  3

 72
          65
 73
           0
 40
0.0
  0
LTYPE
  5
13
100
AcDbSymbolTableRecord
100
AcDbLinetypeTableRecord
  2
CONTINUOUS
 70
          64
  3
Solid line
 72
          65
 73
           0
 40
0.0
  0
LTYPE
  5
1D
100
AcDbSymbolTableRecord
100
AcDbLinetypeTableRecord
  2
AUSGEZOGEN
 70
           0
  3

 72
          65
 73
           2
 40
0.5
 49
0.25
 74
           0
 49
-0.25
 74
           0
  0
LTYPE
  5
1E
100
AcDbSymbolTableRecord
100
AcDbLinetypeTableRecord
  2
STRICHLINIE
 70
           0
  3

 72
          65
 73
           2
 40
0.5
 49
0.25
 74
           0
 49
-0.25
 74
           0
  0
LTYPE
  5
1F
100
AcDbSymbolTableRecord
100
AcDbLinetypeTableRecord
  2
STRICHPUNKT
 70
           0
  3

 72
          65
 73
           4
 40
1.0
 49
0.5
 74
           0
 49
-0.25
 74
           0
 49
0.0
 74
           0
 49
-0.25
 74
           0
  0
ENDTAB
  0
TABLE
  2
LAYER
  5
2
100
AcDbSymbolTable
 70
           5
  0
LAYER
  5
14
100
AcDbSymbolTableRecord
100
AcDbLayerTableRecord
  2
0
 70
           0
 62
           7
  6
CONTINUOUS
  0
LAYER
  5
20
100
AcDbSymbolTableRecord
100
AcDbLayerTableRecord
  2
LC-003-002-----0
 70
           0
 62
           7
  6
CONTINUOUS
  0
LAYER
  5
21
100
AcDbSymbolTableRecord
100
AcDbLayerTableRecord
  2
LC-004-006-----0
 70
           0
 62
           7
  6
CONTINUOUS
  0
LAYER
  5
22
100
AcDbSymbolTableRecord
100
AcDbLayerTableRecord
  2
LC-006-012-----0
 70
           0
 62
           7
  6
CONTINUOUS
  0
LAYER
  5
23
100
AcDbSymbolTableRecord
100
AcDbLayerTableRecord
  2
LC-005-002-RND-0
 70
           0
 62
           7
  6
CONTINUOUS
  0
ENDTAB
  0
TABLE
  2
STYLE
  5
3
100
AcDbSymbolTable
 70
           1
  0
STYLE
  5
17
100
AcDbSymbolTableRecord
100
AcDbTextStyleTableRecord
  2
TXT
 70
           0
 40
3.5
 41
1.0
 50
0.0
 71
           0
 42
3.5
  3
TXT
  4

  0
ENDTAB
  0
TABLE
  2
VIEW
  5
5
100
AcDbSymbolTable
 70
           0
  0
ENDTAB
  0
TABLE
  2
UCS
  5
6
100
AcDbSymbolTable
 70
           0
  0
ENDTAB
  0
TABLE
  2
APPID
  5
8
100
AcDbSymbolTable
 70
           2
  0
APPID
  5
16
100
AcDbSymbolTableRecord
100
AcDbRegAppTableRecord
  2
ACAD
 70
           0
  0
APPID
  5
24
100
AcDbSymbolTableRecord
100
AcDbRegAppTableRecord
  2
MegaCADPntStyle
 70
           0
  0
ENDTAB
  0
TABLE
  2
DIMSTYLE
  5
9
100
AcDbSymbolTable
 70
           1
  0
DIMSTYLE
105
18
100
AcDbSymbolTableRecord
100
AcDbDimStyleTableRecord
  2
STANDARD
 70
           0
  3

  4

  5

  6

  7

 40
1.0
 41
0.18
 42
0.0625
 43
0.38
 44
0.18
 45
0.0
 46
0.0
 47
0.0
 48
0.0
 71
           0
 72
           0
 73
           1
 74
           1
 75
           0
 76
           0
 77
           0
 78
           0
140
0.18
141
0.09
142
0.0
143
25.4
144
1.0
145
0.0
146
1.0
147
0.09
170
           0
171
           2
172
           0
173
           0
174
           0
175
           0
176
           0
177
           0
178
           0
270
           2
271
           4
272
           4
273
           2
274
           2
275
           0
280
           0
281
           0
282
           0
283
           1
284
           0
285
           0
286
           0
287
           0
288
           0
340
17
  0
ENDTAB
  0
TABLE
  2
BLOCK_RECORD
  5
1
100
AcDbSymbolTable
 70
           4
  0
BLOCK_RECORD
  5
A
100
AcDbSymbolTableRecord
100
AcDbBlockTableRecord
  2
*MODEL_SPACE
  0
BLOCK_RECORD
  5
B
100
AcDbSymbolTableRecord
100
AcDbBlockTableRecord
  2
*PAPER_SPACE
  0
BLOCK_RECORD
  5
25
102
{ACAD_XDICTIONARY
360
5C
102
}
100
AcDbSymbolTableRecord
100
AcDbBlockTableRecord
  2
ELIPPSE
  0
BLOCK_RECORD
  5
26
102
{ACAD_XDICTIONARY
360
5C
102
}
100
AcDbSymbolTableRecord
100
AcDbBlockTableRecord
  2
KM08_1
  0
BLOCK_RECORD
  5
27
102
{ACAD_XDICTIONARY
360
5C
102
}
100
AcDbSymbolTableRecord
100
AcDbBlockTableRecord
  2
KM08_2
  0
BLOCK_RECORD
  5
28
102
{ACAD_XDICTIONARY
360
5C
102
}
100
AcDbSymbolTableRecord
100
AcDbBlockTableRecord
  2
*X3
  0
ENDTAB
  0
ENDSEC
  0
SECTION
  2
BLOCKS
  0
BLOCK
  5
D
100
AcDbEntity
  8
0
100
AcDbBlockBegin
  2
*MODEL_SPACE
 70
           0
 10
0.0
 20
0.0
 30
0.0
  3
*MODEL_SPACE
  1

  0
ENDBLK
  5
E
100
AcDbEntity
  8
0
100
AcDbBlockEnd
  0
BLOCK
  5
F
100
AcDbEntity
 67
           1
  8
0
100
AcDbBlockBegin
  2
*PAPER_SPACE
 70
           0
 10
0.0
 20
0.0
 30
0.0
  3
*PAPER_SPACE
  1

  0
ENDBLK
  5
10
100
AcDbEntity
 67
           1
  8
0
100
AcDbBlockEnd
  0
BLOCK
  5
D9
100
AcDbEntity
  8
0
100
AcDbBlockBegin
  2
ELIPPSE
 70
          64
 10
0.0
 20
0.0
 30
0.0
  3
ELIPPSE
  1

  0
CIRCLE
  5
DA
100
AcDbEntity
  8
0
  6
BYBLOCK
 62
           0
100
AcDbCircle
 10
0.0
 20
0.0
 30
0.0
 40
1.0
  0
ENDBLK
  5
DB
100
AcDbEntity
  8
0
  6
BYBLOCK
 62
           0
100
AcDbBlockEnd
  0
BLOCK
  5
DC
100
AcDbEntity
  8
0
100
AcDbBlockBegin
  2
KM08_1
 70
          64
 10
0.0
 20
0.0
 30
0.0
  3
KM08_1
  1

  0
LINE
  5
DD
100
AcDbEntity
  8
0
  6
BYBLOCK
 62
           0
100
AcDbLine
 10
-7.0
 20
-148.996666666667
 30
0.0
 11
7.0
 21
-148.996666666667
 31
0.0
  0
LINE
  5
DE
100
AcDbEntity
  8
0
  6
BYBLOCK
 62
           0
100
AcDbLine
 10
7.0
 20
-148.996666666667
 30
0.0
 11
7.0
 21
-139.996666666667
 31
0.0
  0
LINE
  5
DF
100
AcDbEntity
  8
0
  6
BYBLOCK
 62
           0
100
AcDbLine
 10
-7.0
 20
-148.996666666667
 30
0.0
 11
-7.0
 21
-139.996666666667
 31
0.0
  0
LINE
  5
E0
100
AcDbEntity
  8
0
  6
BYBLOCK
 62
           0
100
AcDbLine
 10
4.5
 20
-153.0
 30
0.0
 11
4.5
 21
-148.996666666667
 31
0.0
  0
LINE
  5
E1
100
AcDbEntity
  8
0
  6
BYBLOCK
 62
           0
100
AcDbLine
 10
-4.5
 20
-153.0
 30
0.0
 11
-4.5
 21
-148.996666666667
 31
0.0
  0
ENDBLK
  5
E2
100
AcDbEntity
  8
0
  6
BYBLOCK
 62
           0
100
AcDbBlockEnd
  0
BLOCK
  5
E3
100
AcDbEntity
  8
0
100
AcDbBlockBegin
  2
KM08_2
 70
          64
 10
0.0
 20
0.0
 30
0.0
  3
KM08_2
  1

  0
LINE
  5
E4
100
AcDbEntity
  8
0
  6
BYBLOCK
 62
           0
100
AcDbLine
 10
-7.0
 20
-148.996666666667
 30
0.0
 11
7.0
 21
-148.996666666667
 31
0.0
  0
LINE
  5
E5
100
AcDbEntity
  8
0
  6
BYBLOCK
 62
           0
100
AcDbLine
 10
7.0
 20
-148.996666666667
 30
0.0
 11
7.0
 21
-139.996666666667
 31
0.0
  0
LINE
  5
E6
100
AcDbEntity
  8
0
  6
BYBLOCK
 62
           0
100
AcDbLine
 10
-7.0
 20
-148.996666666667
 30
0.0
 11
-7.0
 21
-139.996666666667
 31
0.0
  0
LINE
  5
E7
100
AcDbEntity
  8
0
  6
BYBLOCK
 62
           0
100
AcDbLine
 10
4.5
 20
-153.0
 30
0.0
 11
4.5
 21
-148.996666666667
 31
0.0
  0
LINE
  5
E8
100
AcDbEntity
  8
0
  6
BYBLOCK
 62
           0
100
AcDbLine
 10
-4.5
 20
-153.0
 30
0.0
 11
-4.5
 21
-148.996666666667
 31
0.0
  0
ENDBLK
  5
E9
100
AcDbEntity
  8
0
  6
BYBLOCK
 62
           0
100
AcDbBlockEnd
  0
BLOCK
  5
EA
100
AcDbEntity
  8
0
100
AcDbBlockBegin
  2
*X3
 70
          65
 10
0.0
 20
0.0
 30
0.0
  3
*X3
  1

  0
LINE
  5
EB
100
AcDbEntity
  8
0
  6
BYBLOCK
 62
           0
100
AcDbLine
 10
594.603542548308
 20
204.280599333333
 30
0.0
 11
594.728250666667
 21
204.405307451692
 31
0.0
  0
LINE
  5
EC
100
AcDbEntity
  8
0
  6
BYBLOCK
 62
           0
100
AcDbLine
 10
596.394917333333
 20
206.071974118359
 30
0.0
 11
598.061584
 21
207.738640785026
 31
0.0
  0
LINE
  5
ED
100
AcDbEntity
  8
0
  6
BYBLOCK
 62
           0
100
AcDbLine
 10
587.325960401882
 20
205.488298561146
 30
0.0
 11
593.284927840736
 21
211.447266
 31
0.0
  0
LINE
  5
EE
100
AcDbEntity
  8
0
  6
BYBLOCK
 62
           0
100
AcDbLine
 10
577.63297979983
 20
204.280599333333
 30
0.0
 11
584.799646466497
 21
211.447266
 31
0.0
  0
LINE
  5
EF
100
AcDbEntity
  8
0
  6
BYBLOCK
 62
           0
100
AcDbLine
 10
569.147698425592
 20
204.280599333333
 30
0.0
 11
576.314365092259
 21
211.447266
 31
0.0
  0
LINE
  5
F0
100
AcDbEntity
  8
0
  6
BYBLOCK
 62
           0
100
AcDbLine
 10
560.662417051353
 20
204.280599333333
 30
0.0
 11
567.82908371802
 21
211.447266
 31
0.0
  0
LINE
  5
F1
100
AcDbEntity
  8
0
  6
BYBLOCK
 62
           0
100
AcDbLine
 10
552.177135677115
 20
204.280599333333
 30
0.0
 11
559.343802343781
 21
211.447266
 31
0.0
  0
LINE
  5
F2
100
AcDbEntity
  8
0
  6
BYBLOCK
 62
           0
100
AcDbLine
 10
543.691854302876
 20
204.280599333333
 30
0.0
 11
550.858520969543
 21
211.447266
 31
0.0
  0
LINE
  5
F3
100
AcDbEntity
  8
0
  6
BYBLOCK
 62
           0
100
AcDbLine
 10
535.206572928638
 20
204.280599333333
 30
0.0
 11
542.373239595304
 21
211.447266
 31
0.0
  0
LINE
  5
F4
100
AcDbEntity
  8
0
  6
BYBLOCK
 62
           0
100
AcDbLine
 10
527.797490794438
 20
205.356798573372
 30
0.0
 11
533.887958221066
 21
211.447266
 31
0.0
  0
LINE
  5
F5
100
AcDbEntity
  8
0
  6
BYBLOCK
 62
           0
100
AcDbLine
 10
518.236010180161
 20
204.280599333333
 30
0.0
 11
525.402676846827
 21
211.447266
 31
0.0
  0
LINE
  5
F6
100
AcDbEntity
  8
0
  6
BYBLOCK
 62
           0
100
AcDbLine
 10
509.750728805922
 20
204.280599333333
 30
0.0
 11
516.917395472589
 21
211.447266
 31
0.0
  0
LINE
  5
F7
100
AcDbEntity
  8
0
  6
BYBLOCK
 62
           0
100
AcDbLine
 10
501.265447431683
 20
204.280599333333
 30
0.0
 11
508.43211409835
 21
211.447266
 31
0.0
  0
LINE
  5
F8
100
AcDbEntity
  8
0
  6
BYBLOCK
 62
           0
100
AcDbLine
 10
492.780166057445
 20
204.280599333333
 30
0.0
 11
499.946832724111
 21
211.447266
 31
0.0
  0
LINE
  5
F9
100
AcDbEntity
  8
0
  6
BYBLOCK
 62
           0
100
AcDbLine
 10
485.728251333333
 20
205.71396598346
 30
0.0
 11
491.461551349873
 21
211.447266
 31
0.0
  0
LINE
  5
FA
100
AcDbEntity
  8
0
  6
BYBLOCK
 62
           0
100
AcDbLine
 10
475.809603308968
 20
204.280599333333
 30
0.0
 11
480.394918
 21
208.865914024366
 31
0.0
  0
LINE
  5
FB
100
AcDbEntity
  8
0
  6
BYBLOCK
 62
           0
100
AcDbLine
 10
467.324321934729
 20
204.280599333333
 30
0.0
 11
474.490988601396
 21
211.447266
 31
0.0
  0
LINE
  5
FC
100
AcDbEntity
  8
0
  6
BYBLOCK
 62
           0
100
AcDbLine
 10
458.839040560491
 20
204.280599333333
 30
0.0
 11
466.005707227157
 21
211.447266
 31
0.0
  0
LINE
  5
FD
100
AcDbEntity
  8
0
  6
BYBLOCK
 62
           0
100
AcDbLine
 10
450.353759186252
 20
204.280599333333
 30
0.0
 11
458.064917333333
 21
211.991757480415
 31
0.0
  0
LINE
  5
FE
100
AcDbEntity
  8
0
  6
BYBLOCK
 62
           0
100
AcDbLine
 10
441.868477812013
 20
204.280599333333
 30
0.0
 11
451.03514447868
 21
213.447266
 31
0.0
  0
LINE
  5
FF
100
AcDbEntity
  8
0
  6
BYBLOCK
 62
           0
100
AcDbLine
 10
433.383196437775
 20
204.280599333333
 30
0.0
 11
440.549863104441
 21
211.447266
 31
0.0
  0
LINE
  5
100
100
AcDbEntity
  8
0
  6
BYBLOCK
 62
           0
100
AcDbLine
 10
456.549863104441
 20
227.447266
 30
0.0
 11
457.807390218887
 21
228.704793114446
 31
0.0
  0
LINE
  5
101
100
AcDbEntity
  8
0
  6
BYBLOCK
 62
           0
100
AcDbLine
 10
424.897915063536
 20
204.280599333333
 30
0.0
 11
432.064581730203
 21
211.447266
 31
0.0
  0
LINE
  5
102
100
AcDbEntity
  8
0
  6
BYBLOCK
 62
           0
100
AcDbLine
 10
445.564581730203
 20
224.947266
 30
0.0
 11
450.064581730203
 21
229.447266
 31
0.0
  0
LINE
  5
103
100
AcDbEntity
  8
0
  6
BYBLOCK
 62
           0
100
AcDbLine
 10
416.412633689298
 20
204.280599333333
 30
0.0
 11
423.579300355964
 21
211.447266
 31
0.0
  0
LINE
  5
104
100
AcDbEntity
  8
0
  6
BYBLOCK
 62
           0
100
AcDbLine
 10
407.927352315059
 20
204.280599333333
 30
0.0
 11
415.094018981726
 21
211.447266
 31
0.0
  0
LINE
  5
105
100
AcDbEntity
  8
0
  6
BYBLOCK
 62
           0
100
AcDbLine
 10
399.44207094082
 20
204.280599333333
 30
0.0
 11
406.608737607487
 21
211.447266
 31
0.0
  0
LINE
  5
106
100
AcDbEntity
  8
0
  6
BYBLOCK
 62
           0
100
AcDbLine
 10
390.956789566582
 20
204.280599333333
 30
0.0
 11
398.123456233249
 21
211.447266
 31
0.0
  0
LINE
  5
107
100
AcDbEntity
  8
0
  6
BYBLOCK
 62
           0
100
AcDbLine
 10
382.976361959659
 20
204.785453100649
 30
0.0
 11
389.63817485901
 21
211.447266
 31
0.0
  0
LINE
  5
108
100
AcDbEntity
  8
0
  6
BYBLOCK
 62
           0
100
AcDbLine
 10
373.986226818105
 20
204.280599333333
 30
0.0
 11
381.152893484771
 21
211.447266
 31
0.0
  0
LINE
  5
109
100
AcDbEntity
  8
0
  6
BYBLOCK
 62
           0
100
AcDbLine
 10
368.061584
 20
206.841237889467
 30
0.0
 11
372.667612110533
 21
211.447266
 31
0.0
  0
ENDBLK
  5
10A
100
AcDbEntity
  8
0
  6
BYBLOCK
 62
           0
100
AcDbBlockEnd
  0
ENDSEC
  0
SECTION
  2
ENTITIES
  0
INSERT
  5
29
100
AcDbEntity
  8
LC-003-002-----0
  6
AUSGEZOGEN
 62
           1
100
AcDbBlockReference
  2
KM08_1
 10
598.061584
 20
220.447266
 30
0.0
 50
269.999999999999
  0
INSERT
  5
2A
100
AcDbEntity
  8
LC-006-012-----0
  6
STRICHLINIE
 62
           2
100
AcDbBlockReference
  2
KM08_2
 10
598.061584
 20
137.447266
 30
0.0
 50
269.999999999999
  0
LINE
  5
2B
100
AcDbEntity
  8
LC-005-002-RND-0
  6
AUSGEZOGEN
 62
           2
100
AcDbLine
 10
628.927796
 20
198.947266
 30
0.0
 11
628.927796
 21
198.947266
 31
0.0
  0
LINE
  5
2C
100
AcDbEntity
  8
LC-005-002-RND-0
  6
AUSGEZOGEN
 62
           2
100
AcDbLine
 10
628.927796
 20
198.947266
 30
0.0
 11
627.326884
 21
196.317260666667
 31
0.0
  0
LINE
  5
2D
100
AcDbEntity
  8
LC-005-002-RND-0
  6
AUSGEZOGEN
 62
           2
100
AcDbLine
 10
627.326884
 20
196.317260666667
 30
0.0
 11
626.302062666667
 21
193.15035
 31
0.0
  0
LINE
  5
2E
100
AcDbEntity
  8
LC-005-002-RND-0
  6
AUSGEZOGEN
 62
           2
100
AcDbLine
 10
626.302062666667
 20
193.15035
 30
0.0
 11
626.351298666667
 21
190.349344666667
 31
0.0
  0
LINE
  5
2F
100
AcDbEntity
  8
LC-005-002-RND-0
  6
AUSGEZOGEN
 62
           2
100
AcDbLine
 10
626.351298666667
 20
190.349344666667
 30
0.0
 11
626.987202666667
 21
187.759684666667
 31
0.0
  0
LINE
  5
30
100
AcDbEntity
  8
LC-005-002-RND-0
  6
AUSGEZOGEN
 62
           2
100
AcDbLine
 10
626.987202666667
 20
187.759684666667
 30
0.0
 11
627.722392
 21
185.226766
 31
0.0
  0
LINE
  5
31
100
AcDbEntity
  8
LC-005-002-RND-0
  6
AUSGEZOGEN
 62
           2
100
AcDbLine
 10
627.722392
 20
185.226766
 30
0.0
 11
628.069478666667
 21
182.596008666667
 31
0.0
  0
LINE
  5
32
100
AcDbEntity
  8
LC-005-002-RND-0
  6
AUSGEZOGEN
 62
           2
100
AcDbLine
 10
628.069478666667
 20
182.596008666667
 30
0.0
 11
627.541077333333
 21
179.712788666667
 31
0.0
  0
LINE
  5
33
100
AcDbEntity
  8
LC-005-002-RND-0
  6
AUSGEZOGEN
 62
           2
100
AcDbLine
 10
627.541077333333
 20
179.712788666667
 30
0.0
 11
627.541077333333
 21
179.712788666667
 31
0.0
  0
LINE
  5
34
100
AcDbEntity
  8
LC-005-002-RND-0
  6
AUSGEZOGEN
 62
           2
100
AcDbLine
 10
627.541077333333
 20
179.712788666667
 30
0.0
 11
627.112692
 21
177.936462
 31
0.0
  0
LINE
  5
35
100
AcDbEntity
  8
LC-005-002-RND-0
  6
AUSGEZOGEN
 62
           2
100
AcDbLine
 10
627.112692
 20
177.936462
 30
0.0
 11
627.112692
 21
177.936462
 31
0.0
  0
LINE
  5
36
100
AcDbEntity
  8
LC-005-002-RND-0
  6
AUSGEZOGEN
 62
           2
100
AcDbLine
 10
627.112692
 20
177.936462
 30
0.0
 11
627.534880715324
 21
174.575367741738
 31
0.0
  0
LINE
  5
37
100
AcDbEntity
  8
LC-005-002-RND-0
  6
AUSGEZOGEN
 62
           2
100
AcDbLine
 10
627.534880715324
 20
174.575367741738
 30
0.0
 11
626.614382831665
 21
172.192880060978
 31
0.0
  0
LINE
  5
38
100
AcDbEntity
  8
LC-005-002-RND-0
  6
AUSGEZOGEN
 62
           2
100
AcDbLine
 10
626.614382831665
 20
172.192880060978
 30
0.0
 11
627.689338245223
 21
170.320130581237
 31
0.0
  0
LINE
  5
39
100
AcDbEntity
  8
LC-005-002-RND-0
  6
AUSGEZOGEN
 62
           2
100
AcDbLine
 10
627.689338245223
 20
170.320130581237
 30
0.0
 11
626.971302097799
 21
168.536031658943
 31
0.0
  0
LINE
  5
3A
100
AcDbEntity
  8
LC-005-002-RND-0
  6
AUSGEZOGEN
 62
           2
100
AcDbLine
 10
626.971302097799
 20
168.536031658943
 30
0.0
 11
628.054341333333
 21
167.341959333333
 31
0.0
  0
LINE
  5
3B
100
AcDbEntity
  8
LC-005-002-RND-0
  6
AUSGEZOGEN
 62
           2
100
AcDbLine
 10
628.054341333333
 20
167.341959333333
 30
0.0
 11
627.467509333333
 21
163.733846
 31
0.0
  0
LINE
  5
3C
100
AcDbEntity
  8
LC-005-002-RND-0
  6
AUSGEZOGEN
 62
           2
100
AcDbLine
 10
627.467509333333
 20
163.733846
 30
0.0
 11
628.826233333333
 21
160.38383
 31
0.0
  0
LINE
  5
3D
100
AcDbEntity
  8
LC-005-002-RND-0
  6
AUSGEZOGEN
 62
           2
100
AcDbLine
 10
628.826233333333
 20
160.38383
 30
0.0
 11
628.826233333333
 21
160.38383
 31
0.0
  0
LINE
  5
3E
100
AcDbEntity
  8
LC-005-002-RND-0
  6
AUSGEZOGEN
 62
           2
100
AcDbLine
 10
628.826233333333
 20
160.38383
 30
0.0
 11
630.214736304673
 21
158.947266
 31
0.0
  0
LINE
  5
3F
100
AcDbEntity
  8
LC-005-002-RND-0
  6
AUSGEZOGEN
 62
           2
100
AcDbLine
 10
333.040750666667
 20
198.947266
 30
0.0
 11
333.040750666667
 21
198.947266
 31
0.0
  0
LINE
  5
40
100
AcDbEntity
  8
LC-005-002-RND-0
  6
AUSGEZOGEN
 62
           2
100
AcDbLine
 10
333.040750666667
 20
198.947266
 30
0.0
 11
333.897481333333
 21
195.671326
 31
0.0
  0
LINE
  5
41
100
AcDbEntity
  8
LC-005-002-RND-0
  6
AUSGEZOGEN
 62
           2
100
AcDbLine
 10
333.897481333333
 20
195.671326
 30
0.0
 11
334.413757333333
 21
192.012675333333
 31
0.0
  0
LINE
  5
42
100
AcDbEntity
  8
LC-005-002-RND-0
  6
AUSGEZOGEN
 62
           2
100
AcDbLine
 10
334.413757333333
 20
192.012675333333
 30
0.0
 11
334.363993333333
 21
188.88619
 31
0.0
  0
LINE
  5
43
100
AcDbEntity
  8
LC-005-002-RND-0
  6
AUSGEZOGEN
 62
           2
100
AcDbLine
 10
334.363993333333
 20
188.88619
 30
0.0
 11
333.953633333333
 21
186.127807333333
 31
0.0
  0
LINE
  5
44
100
AcDbEntity
  8
LC-005-002-RND-0
  6
AUSGEZOGEN
 62
           2
100
AcDbLine
 10
333.953633333333
 20
186.127807333333
 30
0.0
 11
333.388
 21
183.573506
 31
0.0
  0
LINE
  5
45
100
AcDbEntity
  8
LC-005-002-RND-0
  6
AUSGEZOGEN
 62
           2
100
AcDbLine
 10
333.388
 20
183.573506
 30
0.0
 11
332.872457333333
 21
181.059224666667
 31
0.0
  0
LINE
  5
46
100
AcDbEntity
  8
LC-005-002-RND-0
  6
AUSGEZOGEN
 62
           2
100
AcDbLine
 10
332.872457333333
 20
181.059224666667
 30
0.0
 11
332.612365333333
 21
178.420918
 31
0.0
  0
LINE
  5
47
100
AcDbEntity
  8
LC-005-002-RND-0
  6
AUSGEZOGEN
 62
           2
100
AcDbLine
 10
332.612365333333
 20
178.420918
 30
0.0
 11
332.612365333333
 21
178.420918
 31
0.0
  0
LINE
  5
48
100
AcDbEntity
  8
LC-005-002-RND-0
  6
AUSGEZOGEN
 62
           2
100
AcDbLine
 10
332.612365333333
 20
178.420918
 30
0.0
 11
332.612365333333
 21
176.816447333333
 31
0.0
  0
LINE
  5
49
100
AcDbEntity
  8
LC-005-002-RND-0
  6
AUSGEZOGEN
 62
           2
100
AcDbLine
 10
332.612365333333
 20
176.816447333333
 30
0.0
 11
332.501037333333
 21
173.290731333333
 31
0.0
  0
LINE
  5
4A
100
AcDbEntity
  8
LC-005-002-RND-0
  6
AUSGEZOGEN
 62
           2
100
AcDbLine
 10
332.501037333333
 20
173.290731333333
 30
0.0
 11
332.223328
 21
169.365031333333
 31
0.0
  0
LINE
  5
4B
100
AcDbEntity
  8
LC-005-002-RND-0
  6
AUSGEZOGEN
 62
           2
100
AcDbLine
 10
332.223328
 20
169.365031333333
 30
0.0
 11
331.862446666667
 21
165.503600666667
 31
0.0
  0
LINE
  5
4C
100
AcDbEntity
  8
LC-005-002-RND-0
  6
AUSGEZOGEN
 62
           2
100
AcDbLine
 10
331.862446666667
 20
165.503600666667
 30
0.0
 11
331.501608
 21
162.170674
 31
0.0
  0
LINE
  5
4D
100
AcDbEntity
  8
LC-005-002-RND-0
  6
AUSGEZOGEN
 62
           2
100
AcDbLine
 10
331.501608
 20
162.170674
 30
0.0
 11
331.22406
 21
159.830484666667
 31
0.0
  0
LINE
  5
4E
100
AcDbEntity
  8
LC-005-002-RND-0
  6
AUSGEZOGEN
 62
           2
100
AcDbLine
 10
331.22406
 20
159.830484666667
 30
0.0
 11
331.113057333333
 21
158.947266
 31
0.0
  0
LINE
  5
4F
100
AcDbEntity
  8
LC-004-006-----0
  6
STRICHPUNKT
 62
           2
100
AcDbLine
 10
759.678131193278
 20
199.048284917143
 30
0.0
 11
770.784495193277
 21
210.154670250476
 31
0.0
  0
LINE
  5
50
100
AcDbEntity
  8
LC-003-002-----0
  6
AUSGEZOGEN
 62
           1
100
AcDbLine
 10
480.394918
 20
211.447266
 30
0.0
 11
480.394918
 21
204.280599333333
 31
0.0
  0
LINE
  5
51
100
AcDbEntity
  8
LC-004-006-----0
  6
STRICHPUNKT
 62
           2
100
AcDbLine
 10
631.396464
 20
178.947266
 30
0.0
 11
330.042094666667
 21
178.947266
 31
0.0
  0
LINE
  5
52
100
AcDbEntity
  8
LC-003-002-----0
  6
AUSGEZOGEN
 62
           1
100
AcDbLine
 10
458.064917333333
 20
129.447266
 30
0.0
 11
458.064917333333
 21
178.947266
 31
0.0
  0
LINE
  5
53
100
AcDbEntity
  8
LC-003-002-----0
  6
AUSGEZOGEN
 62
           1
100
AcDbLine
 10
443.728250666667
 20
211.447266
 30
0.0
 11
370.061584
 21
211.447266
 31
0.0
  0
LINE
  5
54
100
AcDbEntity
  8
LC-003-002-----0
  6
AUSGEZOGEN
 62
           1
100
AcDbLine
 10
443.728250666667
 20
146.447266
 30
0.0
 11
370.061584
 21
146.447266
 31
0.0
  0
LINE
  5
55
100
AcDbEntity
  8
LC-003-002-----0
  6
AUSGEZOGEN
 62
           1
100
AcDbLine
 10
445.061584
 20
228.447266
 30
0.0
 11
445.061584
 21
211.047262
 31
0.0
  0
LINE
  5
56
100
AcDbEntity
  8
LC-003-002-----0
  6
AUSGEZOGEN
 62
           1
100
AcDbLine
 10
457.064917333333
 20
229.447266
 30
0.0
 11
446.061584
 21
229.447266
 31
0.0
  0
LINE
  5
57
100
AcDbEntity
  8
LC-003-002-----0
  6
AUSGEZOGEN
 62
           1
100
AcDbLine
 10
446.061584
 20
128.447266
 30
0.0
 11
457.064917333333
 21
128.447266
 31
0.0
  0
LINE
  5
58
100
AcDbEntity
  8
LC-003-002-----0
  6
AUSGEZOGEN
 62
           1
100
AcDbLine
 10
368.061584
 20
209.447266
 30
0.0
 11
368.061584
 21
198.947266
 31
0.0
  0
LINE
  5
59
100
AcDbEntity
  8
LC-004-006-----0
  6
STRICHPUNKT
 62
           2
100
AcDbLine
 10
483.061584666667
 20
221.511636666667
 30
0.0
 11
483.061584666667
 21
202.488280666667
 31
0.0
  0
LINE
  5
5A
100
AcDbEntity
  8
LC-003-002-----0
  6
AUSGEZOGEN
 62
           1
100
AcDbLine
 10
479.194886
 20
213.313924666667
 30
0.0
 11
479.194886
 21
211.447266
 31
0.0
  0
LINE
  5
5B
100
AcDbEntity
  8
LC-003-002-----0
  6
AUSGEZOGEN
 62
           1
100
AcDbLine
 10
486.928284666666
 20
213.313924666667
 30
0.0
 11
486.928284666666
 21
211.447266
 31
0.0
  0
LINE
  5
5C
100
AcDbEntity
  8
LC-003-002-----0
  6
AUSGEZOGEN
 62
           1
100
AcDbLine
 10
481.461568666666
 20
213.313924666667
 30
0.0
 11
481.461568666666
 21
211.447266
 31
0.0
  0
LINE
  5
5D
100
AcDbEntity
  8
LC-003-002-----0
  6
AUSGEZOGEN
 62
           1
100
AcDbLine
 10
486.928284666666
 20
213.313924666667
 30
0.0
 11
479.194886
 21
213.313924666667
 31
0.0
  0
LINE
  5
5E
100
AcDbEntity
  8
LC-003-002-----0
  6
AUSGEZOGEN
 62
           1
100
AcDbLine
 10
484.661602
 20
213.313924666667
 30
0.0
 11
484.661602
 21
211.447266
 31
0.0
  0
LINE
  5
5F
100
AcDbEntity
  8
LC-003-002-----0
  6
AUSGEZOGEN
 62
           1
100
AcDbLine
 10
480.394918
 20
214.647258
 30
0.0
 11
480.394918
 21
213.313924666667
 31
0.0
  0
LINE
  5
60
100
AcDbEntity
  8
LC-003-002-----0
  6
AUSGEZOGEN
 62
           1
100
AcDbLine
 10
485.728251333333
 20
214.647258
 30
0.0
 11
485.728251333333
 21
213.313924666667
 31
0.0
  0
LINE
  5
61
100
AcDbEntity
  8
LC-003-002-----0
  6
AUSGEZOGEN
 62
           1
100
AcDbLine
 10
486.394918
 20
214.647258
 30
0.0
 11
479.728251333333
 21
214.647258
 31
0.0
  0
LINE
  5
62
100
AcDbEntity
  8
LC-003-002-----0
  6
AUSGEZOGEN
 62
           1
100
AcDbLine
 10
479.728251333333
 20
215.980591333333
 30
0.0
 11
479.728251333333
 21
214.647258
 31
0.0
  0
LINE
  5
63
100
AcDbEntity
  8
LC-003-002-----0
  6
AUSGEZOGEN
 62
           1
100
AcDbLine
 10
486.394918
 20
215.980591333333
 30
0.0
 11
486.394918
 21
214.647258
 31
0.0
  0
LINE
  5
64
100
AcDbEntity
  8
LC-003-002-----0
  6
AUSGEZOGEN
 62
           1
100
AcDbLine
 10
486.394918
 20
215.980591333333
 30
0.0
 11
479.728251333333
 21
215.980591333333
 31
0.0
  0
LINE
  5
65
100
AcDbEntity
  8
LC-003-002-----0
  6
AUSGEZOGEN
 62
           1
100
AcDbLine
 10
485.061584666667
 20
218.647258
 30
0.0
 11
481.061584666667
 21
218.647258
 31
0.0
  0
ARC
  5
66
100
AcDbEntity
  8
LC-003-002-----0
  6
AUSGEZOGEN
 62
           1
100
AcDbCircle
 10
483.061584666667
 20
215.980591333333
 30
0.0
 40
3.117952
100
AcDbArc
 50
58.788702
 51
121.211296
  0
LINE
  5
67
100
AcDbEntity
  8
LC-003-002-----0
  6
AUSGEZOGEN
 62
           1
100
AcDbLine
 10
485.061584666667
 20
218.647258
 30
0.0
 11
486.394918
 21
215.980591333333
 31
0.0
  0
LINE
  5
68
100
AcDbEntity
  8
LC-003-002-----0
  6
AUSGEZOGEN
 62
           1
100
AcDbLine
 10
481.061584666667
 20
218.647258
 30
0.0
 11
479.728251333333
 21
215.980591333333
 31
0.0
  0
LINE
  5
69
100
AcDbEntity
  8
LC-004-006-----0
  6
STRICHPUNKT
 62
           2
100
AcDbLine
 10
682.372782666667
 20
178.947266
 30
0.0
 11
797.918925333333
 21
178.947266
 31
0.0
  0
LINE
  5
6A
100
AcDbEntity
  8
LC-004-006-----0
  6
STRICHPUNKT
 62
           2
100
AcDbLine
 10
739.577128
 20
121.174316666667
 30
0.0
 11
739.577128
 21
236.042643333333
 31
0.0
  0
ARC
  5
6B
100
AcDbEntity
  8
LC-003-002-----0
  6
AUSGEZOGEN
 62
           1
100
AcDbCircle
 10
370.061584
 20
209.447266
 30
0.0
 40
2.0
100
AcDbArc
 50
90.000002999999
 51
180.000008999999
  0
LINE
  5
6C
100
AcDbEntity
  8
LC-003-002-----0
  6
AUSGEZOGEN
 62
           1
100
AcDbLine
 10
485.728251333333
 20
211.447266
 30
0.0
 11
485.728251333333
 21
204.280599333333
 31
0.0
  0
LINE
  5
6D
100
AcDbEntity
  8
LC-003-002-----0
  6
AUSGEZOGEN
 62
           1
100
AcDbLine
 10
331.113057333333
 20
158.947266
 30
0.0
 11
368.061584
 21
158.947266
 31
0.0
  0
LINE
  5
6E
100
AcDbEntity
  8
LC-003-002-----0
  6
AUSGEZOGEN
 62
           1
100
AcDbLine
 10
524.345601333333
 20
204.280599333333
 30
0.0
 11
441.777568
 21
204.280599333333
 31
0.0
  0
LINE
  5
6F
100
AcDbEntity
  8
LC-003-002-----0
  6
AUSGEZOGEN
 62
           1
100
AcDbLine
 10
598.061584
 20
198.947266
 30
0.0
 11
628.927796
 21
198.947266
 31
0.0
  0
LINE
  5
70
100
AcDbEntity
  8
LC-003-002-----0
  6
AUSGEZOGEN
 62
           1
100
AcDbLine
 10
443.728250666667
 20
211.447266
 30
0.0
 11
443.728250666667
 21
211.047262
 31
0.0
  0
LINE
  5
71
100
AcDbEntity
  8
LC-003-002-----0
  6
AUSGEZOGEN
 62
           1
100
AcDbLine
 10
445.061584
 20
211.047262
 30
0.0
 11
443.728250666667
 21
211.047262
 31
0.0
  0
LINE
  5
72
100
AcDbEntity
  8
LC-003-002-----0
  6
AUSGEZOGEN
 62
           1
100
AcDbLine
 10
445.061584
 20
146.84727
 30
0.0
 11
443.728250666667
 21
146.84727
 31
0.0
  0
ARC
  5
73
100
AcDbEntity
  8
LC-003-002-----0
  6
AUSGEZOGEN
 62
           1
100
AcDbCircle
 10
370.061584
 20
148.447266
 30
0.0
 40
2.0
100
AcDbArc
 50
180.000009
 51
269.999997
  0
LINE
  5
74
100
AcDbEntity
  8
LC-003-002-----0
  6
AUSGEZOGEN
 62
           1
100
AcDbLine
 10
446.394917333333
 20
178.947266
 30
0.0
 11
446.394917333333
 21
128.447266
 31
0.0
  0
LINE
  5
75
100
AcDbEntity
  8
LC-003-002-----0
  6
AUSGEZOGEN
 62
           1
100
AcDbLine
 10
456.731584
 20
178.947266
 30
0.0
 11
456.731584
 21
128.447266
 31
0.0
  0
LINE
  5
76
100
AcDbEntity
  8
LC-006-012-----0
  6
STRICHLINIE
 62
           2
100
AcDbLine
 10
760.201080526611
 20
204.285264917143
 30
0.0
 11
764.915109859944
 21
199.571214250476
 31
0.0
  0
LINE
  5
77
100
AcDbEntity
  8
LC-006-012-----0
  6
STRICHLINIE
 62
           2
100
AcDbLine
 10
763.878000526611
 20
203.24817558381
 30
0.0
 11
762.558095193277
 21
201.928250250476
 31
0.0
  0
LINE
  5
78
100
AcDbEntity
  8
LC-006-012-----0
  6
STRICHLINIE
 62
           2
100
AcDbLine
 10
766.235015193277
 20
200.891160917143
 30
0.0
 11
761.520985859944
 21
205.605190250476
 31
0.0
  0
LINE
  5
79
100
AcDbEntity
  8
LC-006-012-----0
  6
STRICHLINIE
 62
           2
100
AcDbLine
 10
762.935211193278
 20
206.076606250476
 30
0.0
 11
761.992420526611
 21
205.13379558381
 31
0.0
  0
LINE
  5
7A
100
AcDbEntity
  8
LC-006-012-----0
  6
STRICHLINIE
 62
           2
100
AcDbLine
 10
766.706451193277
 20
202.305364917143
 30
0.0
 11
765.763661859944
 21
201.36255558381
 31
0.0
  0
LINE
  5
7B
100
AcDbEntity
  8
LC-006-012-----0
  6
STRICHLINIE
 62
           2
100
AcDbLine
 10
767.177805859944
 20
201.833970250476
 30
0.0
 11
762.463775193277
 21
206.548000917143
 31
0.0
  0
LINE
  5
7C
100
AcDbEntity
  8
LC-006-012-----0
  6
STRICHLINIE
 62
           2
100
AcDbLine
 10
763.406564526611
 20
207.490810250476
 30
0.0
 11
762.463775193277
 21
206.548000917143
 31
0.0
  0
LINE
  5
7D
100
AcDbEntity
  8
LC-006-012-----0
  6
STRICHLINIE
 62
           2
100
AcDbLine
 10
768.120676526611
 20
202.776760917143
 30
0.0
 11
767.177805859944
 21
201.833970250476
 31
0.0
  0
LINE
  5
7E
100
AcDbEntity
  8
LC-006-012-----0
  6
STRICHLINIE
 62
           2
100
AcDbLine
 10
768.120676526611
 20
202.776760917143
 30
0.0
 11
763.406564526611
 21
207.490810250476
 31
0.0
  0
LINE
  5
7F
100
AcDbEntity
  8
LC-006-012-----0
  6
STRICHLINIE
 62
           2
100
AcDbLine
 10
769.063465859944
 20
205.605190250476
 30
0.0
 11
766.235015193277
 21
208.433620917143
 31
0.0
  0
ARC
  5
80
100
AcDbEntity
  8
LC-006-012-----0
  6
STRICHLINIE
 62
           2
100
AcDbCircle
 10
765.763661859944
 20
205.133795583809
 30
0.0
 40
3.117952
100
AcDbArc
 50
13.788703000001
 51
76.211299
  0
LINE
  5
81
100
AcDbEntity
  8
LC-006-012-----0
  6
STRICHLINIE
 62
           2
100
AcDbLine
 10
769.063465859944
 20
205.605190250476
 30
0.0
 11
768.120676526611
 21
202.776760917143
 31
0.0
  0
LINE
  5
82
100
AcDbEntity
  8
LC-006-012-----0
  6
STRICHLINIE
 62
           2
100
AcDbLine
 10
766.235015193277
 20
208.433620917143
 30
0.0
 11
763.406564526611
 21
207.490810250476
 31
0.0
  0
LINE
  5
83
100
AcDbEntity
  8
LC-006-012-----0
  6
STRICHLINIE
 62
           2
100
AcDbLine
 10
764.915109859944
 20
199.571214250476
 30
0.0
 11
766.235015193277
 21
200.891160917143
 31
0.0
  0
LINE
  5
84
100
AcDbEntity
  8
LC-006-012-----0
  6
STRICHLINIE
 62
           2
100
AcDbLine
 10
760.201080526611
 20
204.285264917143
 30
0.0
 11
761.520985859944
 21
205.605190250476
 31
0.0
  0
LINE
  5
85
100
AcDbEntity
  8
LC-006-012-----0
  6
STRICHLINIE
 62
           2
100
AcDbLine
 10
368.061584
 20
158.947266
 30
0.0
 11
598.061585333333
 21
158.947266
 31
0.0
  0
LINE
  5
86
100
AcDbEntity
  8
LC-003-002-----0
  6
AUSGEZOGEN
 62
           1
100
AcDbLine
 10
598.061585333333
 20
158.947266
 30
0.0
 11
630.214736304673
 21
158.947266
 31
0.0
  0
LINE
  5
87
100
AcDbEntity
  8
LC-003-002-----0
  6
AUSGEZOGEN
 62
           1
100
AcDbLine
 10
368.061584
 20
178.947266
 30
0.0
 11
368.061584
 21
148.447266
 31
0.0
  0
LINE
  5
88
100
AcDbEntity
  8
LC-003-002-----0
  6
AUSGEZOGEN
 62
           1
100
AcDbLine
 10
443.728250666667
 20
178.947266
 30
0.0
 11
443.728250666667
 21
146.447266
 31
0.0
  0
LINE
  5
89
100
AcDbEntity
  8
LC-003-002-----0
  6
AUSGEZOGEN
 62
           1
100
AcDbLine
 10
445.061584
 20
178.947266
 30
0.0
 11
445.061584
 21
129.447266
 31
0.0
  0
LINE
  5
8A
100
AcDbEntity
  8
LC-003-002-----0
  6
AUSGEZOGEN
 62
           1
100
AcDbLine
 10
458.064917333333
 20
211.047262
 30
0.0
 11
458.064917333333
 21
228.447266
 31
0.0
  0
LINE
  5
8B
100
AcDbEntity
  8
LC-003-002-----0
  6
AUSGEZOGEN
 62
           1
100
AcDbLine
 10
598.061584
 20
198.947266
 30
0.0
 11
598.061584
 21
209.447266
 31
0.0
  0
LINE
  5
8C
100
AcDbEntity
  8
LC-003-002-----0
  6
AUSGEZOGEN
 62
           1
100
AcDbLine
 10
598.061584
 20
198.947266
 30
0.0
 11
368.061584
 21
198.947266
 31
0.0
  0
LINE
  5
8D
100
AcDbEntity
  8
LC-003-002-----0
  6
AUSGEZOGEN
 62
           1
100
AcDbLine
 10
594.728250666667
 20
204.280599333333
 30
0.0
 11
590.444234666667
 21
204.280599333333
 31
0.0
  0
LINE
  5
8E
100
AcDbEntity
  8
LC-003-002-----0
  6
AUSGEZOGEN
 62
           1
100
AcDbLine
 10
516.728250666667
 20
204.280599333333
 30
0.0
 11
516.728250666667
 21
198.947266
 31
0.0
  0
LINE
  5
8F
100
AcDbEntity
  8
LC-003-002-----0
  6
AUSGEZOGEN
 62
           1
100
AcDbLine
 10
598.061584
 20
205.613932666667
 30
0.0
 11
596.394917333333
 21
205.613932666667
 31
0.0
  0
ARC
  5
90
100
AcDbEntity
  8
LC-003-002-----0
  6
AUSGEZOGEN
 62
           1
100
AcDbCircle
 10
588.134826666667
 20
202.947266
 30
0.0
 40
2.666666666667
100
AcDbArc
 50
228.590384
 51
149.999996999999
  0
CIRCLE
  5
91
100
AcDbEntity
  8
LC-003-002-----0
  6
AUSGEZOGEN
 62
           1
100
AcDbCircle
 10
557.394917333333
 20
201.613932666667
 30
0.0
 40
2.666666666667
  0
LINE
  5
92
100
AcDbEntity
  8
LC-003-002-----0
  6
AUSGEZOGEN
 62
           1
100
AcDbLine
 10
371.394917333333
 20
204.280599333333
 30
0.0
 11
375.678934666667
 21
204.280599333333
 31
0.0
  0
CIRCLE
  5
93
100
AcDbEntity
  8
LC-003-002-----0
  6
AUSGEZOGEN
 62
           1
100
AcDbCircle
 10
562.728250666667
 20
201.613932666667
 30
0.0
 40
2.666666666667
  0
CIRCLE
  5
94
100
AcDbEntity
  8
LC-003-002-----0
  6
AUSGEZOGEN
 62
           1
100
AcDbCircle
 10
568.061584
 20
201.613932666667
 30
0.0
 40
2.666666666667
  0
CIRCLE
  5
95
100
AcDbEntity
  8
LC-003-002-----0
  6
AUSGEZOGEN
 62
           1
100
AcDbCircle
 10
573.394917333333
 20
201.613932666667
 30
0.0
 40
2.666666666667
  0
CIRCLE
  5
96
100
AcDbEntity
  8
LC-003-002-----0
  6
AUSGEZOGEN
 62
           1
100
AcDbCircle
 10
578.728250666667
 20
201.613932666667
 30
0.0
 40
2.666666666667
  0
CIRCLE
  5
97
100
AcDbEntity
  8
LC-003-002-----0
  6
AUSGEZOGEN
 62
           1
100
AcDbCircle
 10
584.061584
 20
202.280599333333
 30
0.0
 40
2.666666666667
  0
LINE
  5
98
100
AcDbEntity
  8
LC-003-002-----0
  6
AUSGEZOGEN
 62
           1
100
AcDbLine
 10
449.394917333333
 20
204.280599333333
 30
0.0
 11
449.394917333333
 21
198.947266
 31
0.0
  0
LINE
  5
99
100
AcDbEntity
  8
LC-003-002-----0
  6
AUSGEZOGEN
 62
           1
100
AcDbLine
 10
532.492085333333
 20
204.280599333333
 30
0.0
 11
582.297749333333
 21
204.280599333333
 31
0.0
  0
LINE
  5
9A
100
AcDbEntity
  8
LC-003-002-----0
  6
AUSGEZOGEN
 62
           1
100
AcDbLine
 10
590.444234666667
 20
204.280599333333
 30
0.0
 11
594.728250666667
 21
204.280599333333
 31
0.0
  0
CIRCLE
  5
9B
100
AcDbEntity
  8
LC-003-002-----0
  6
AUSGEZOGEN
 62
           1
100
AcDbCircle
 10
552.061584
 20
201.613932666667
 30
0.0
 40
2.666666666667
  0
CIRCLE
  5
9C
100
AcDbEntity
  8
LC-003-002-----0
  6
AUSGEZOGEN
 62
           1
100
AcDbCircle
 10
546.728250666667
 20
201.613932666667
 30
0.0
 40
2.666666666667
  0
CIRCLE
  5
9D
100
AcDbEntity
  8
LC-003-002-----0
  6
AUSGEZOGEN
 62
           1
100
AcDbCircle
 10
541.394917333333
 20
201.613932666667
 30
0.0
 40
2.666666666667
  0
CIRCLE
  5
9E
100
AcDbEntity
  8
LC-003-002-----0
  6
AUSGEZOGEN
 62
           1
100
AcDbCircle
 10
536.061584
 20
201.613932666667
 30
0.0
 40
2.666666666667
  0
CIRCLE
  5
9F
100
AcDbEntity
  8
LC-003-002-----0
  6
AUSGEZOGEN
 62
           1
100
AcDbCircle
 10
530.728250666667
 20
202.280599333333
 30
0.0
 40
2.666666666667
  0
ARC
  5
A0
100
AcDbEntity
  8
LC-003-002-----0
  6
AUSGEZOGEN
 62
           1
100
AcDbCircle
 10
526.655009333333
 20
202.947266
 30
0.0
 40
2.666666666667
100
AcDbArc
 50
30.000000999999
 51
311.409620999999
  0
LINE
  5
A1
100
AcDbEntity
  8
LC-003-002-----0
  6
AUSGEZOGEN
 62
           1
100
AcDbLine
 10
596.394917333333
 20
206.947266
 30
0.0
 11
595.394917333333
 21
206.947266
 31
0.0
  0
LINE
  5
A2
100
AcDbEntity
  8
LC-003-002-----0
  6
AUSGEZOGEN
 62
           1
100
AcDbLine
 10
596.394917333333
 20
206.947266
 30
0.0
 11
596.394917333333
 21
198.947266
 31
0.0
  0
LINE
  5
A3
100
AcDbEntity
  8
LC-003-002-----0
  6
AUSGEZOGEN
 62
           1
100
AcDbLine
 10
595.394917333333
 20
206.947266
 30
0.0
 11
595.394917333333
 21
198.947266
 31
0.0
  0
LINE
  5
A4
100
AcDbEntity
  8
LC-003-002-----0
  6
AUSGEZOGEN
 62
           1
100
AcDbLine
 10
594.728250666667
 20
205.613932666667
 30
0.0
 11
594.728250666667
 21
198.947266
 31
0.0
  0
LINE
  5
A5
100
AcDbEntity
  8
LC-003-002-----0
  6
AUSGEZOGEN
 62
           1
100
AcDbLine
 10
595.394917333333
 20
205.613932666667
 30
0.0
 11
594.728250666667
 21
205.613932666667
 31
0.0
  0
LINE
  5
A6
100
AcDbEntity
  8
LC-003-002-----0
  6
AUSGEZOGEN
 62
           1
100
AcDbLine
 10
368.061584
 20
205.613932666667
 30
0.0
 11
369.728250666667
 21
205.613932666667
 31
0.0
  0
ARC
  5
A7
100
AcDbEntity
  8
LC-003-002-----0
  6
AUSGEZOGEN
 62
           1
100
AcDbCircle
 10
377.988342666667
 20
202.947266
 30
0.0
 40
2.666666666667
100
AcDbArc
 50
30.000001
 51
311.409621
  0
CIRCLE
  5
A8
100
AcDbEntity
  8
LC-003-002-----0
  6
AUSGEZOGEN
 62
           1
100
AcDbCircle
 10
408.728250666667
 20
201.613932666667
 30
0.0
 40
2.666666666667
  0
CIRCLE
  5
A9
100
AcDbEntity
  8
LC-003-002-----0
  6
AUSGEZOGEN
 62
           1
100
AcDbCircle
 10
403.394917333333
 20
201.613932666667
 30
0.0
 40
2.666666666667
  0
CIRCLE
  5
AA
100
AcDbEntity
  8
LC-003-002-----0
  6
AUSGEZOGEN
 62
           1
100
AcDbCircle
 10
398.061584
 20
201.613932666667
 30
0.0
 40
2.666666666667
  0
CIRCLE
  5
AB
100
AcDbEntity
  8
LC-003-002-----0
  6
AUSGEZOGEN
 62
           1
100
AcDbCircle
 10
392.728250666667
 20
201.613932666667
 30
0.0
 40
2.666666666667
  0
CIRCLE
  5
AC
100
AcDbEntity
  8
LC-003-002-----0
  6
AUSGEZOGEN
 62
           1
100
AcDbCircle
 10
387.394917333333
 20
201.613932666667
 30
0.0
 40
2.666666666667
  0
CIRCLE
  5
AD
100
AcDbEntity
  8
LC-003-002-----0
  6
AUSGEZOGEN
 62
           1
100
AcDbCircle
 10
382.061584
 20
202.280599333333
 30
0.0
 40
2.666666666667
  0
LINE
  5
AE
100
AcDbEntity
  8
LC-003-002-----0
  6
AUSGEZOGEN
 62
           1
100
AcDbLine
 10
433.631082666667
 20
204.280599333333
 30
0.0
 11
383.825418666667
 21
204.280599333333
 31
0.0
  0
LINE
  5
AF
100
AcDbEntity
  8
LC-003-002-----0
  6
AUSGEZOGEN
 62
           1
100
AcDbLine
 10
375.678934666667
 20
204.280599333333
 30
0.0
 11
371.394917333333
 21
204.280599333333
 31
0.0
  0
CIRCLE
  5
B0
100
AcDbEntity
  8
LC-003-002-----0
  6
AUSGEZOGEN
 62
           1
100
AcDbCircle
 10
414.061584
 20
201.613932666667
 30
0.0
 40
2.666666666667
  0
CIRCLE
  5
B1
100
AcDbEntity
  8
LC-003-002-----0
  6
AUSGEZOGEN
 62
           1
100
AcDbCircle
 10
419.394917333333
 20
201.613932666667
 30
0.0
 40
2.666666666667
  0
CIRCLE
  5
B2
100
AcDbEntity
  8
LC-003-002-----0
  6
AUSGEZOGEN
 62
           1
100
AcDbCircle
 10
424.728250666667
 20
201.613932666667
 30
0.0
 40
2.666666666667
  0
CIRCLE
  5
B3
100
AcDbEntity
  8
LC-003-002-----0
  6
AUSGEZOGEN
 62
           1
100
AcDbCircle
 10
430.061584
 20
201.613932666667
 30
0.0
 40
2.666666666667
  0
CIRCLE
  5
B4
100
AcDbEntity
  8
LC-003-002-----0
  6
AUSGEZOGEN
 62
           1
100
AcDbCircle
 10
435.394917333333
 20
202.280599333333
 30
0.0
 40
2.666666666667
  0
ARC
  5
B5
100
AcDbEntity
  8
LC-003-002-----0
  6
AUSGEZOGEN
 62
           1
100
AcDbCircle
 10
439.46816
 20
202.947266
 30
0.0
 40
2.666666666667
100
AcDbArc
 50
228.590384000001
 51
149.999997
  0
LINE
  5
B6
100
AcDbEntity
  8
LC-003-002-----0
  6
AUSGEZOGEN
 62
           1
100
AcDbLine
 10
369.728250666667
 20
206.947266
 30
0.0
 11
370.728250666667
 21
206.947266
 31
0.0
  0
LINE
  5
B7
100
AcDbEntity
  8
LC-003-002-----0
  6
AUSGEZOGEN
 62
           1
100
AcDbLine
 10
369.728250666667
 20
206.947266
 30
0.0
 11
369.728250666667
 21
198.947266
 31
0.0
  0
LINE
  5
B8
100
AcDbEntity
  8
LC-003-002-----0
  6
AUSGEZOGEN
 62
           1
100
AcDbLine
 10
370.728250666667
 20
206.947266
 30
0.0
 11
370.728250666667
 21
198.947266
 31
0.0
  0
LINE
  5
B9
100
AcDbEntity
  8
LC-003-002-----0
  6
AUSGEZOGEN
 62
           1
100
AcDbLine
 10
371.394917333333
 20
205.613932666667
 30
0.0
 11
371.394917333333
 21
198.947266
 31
0.0
  0
LINE
  5
BA
100
AcDbEntity
  8
LC-003-002-----0
  6
AUSGEZOGEN
 62
           1
100
AcDbLine
 10
370.728250666667
 20
205.613932666667
 30
0.0
 11
371.394917333333
 21
205.613932666667
 31
0.0
  0
LINE
  5
BB
100
AcDbEntity
  8
LC-003-002-----0
  6
AUSGEZOGEN
 62
           1
100
AcDbLine
 10
368.061584
 20
198.947266
 30
0.0
 11
333.040750666667
 21
198.947266
 31
0.0
  0
CIRCLE
  5
BC
100
AcDbEntity
  8
LC-003-002-----0
  6
AUSGEZOGEN
 62
           1
100
AcDbCircle
 10
739.577128
 20
178.947266
 30
0.0
 40
20.0
  0
LINE
  5
BD
100
AcDbEntity
  8
LC-004-006-----0
  6
STRICHPUNKT
 62
           2
100
AcDbLine
 10
460.499894666666
 20
137.447266
 30
0.0
 11
443.264465333333
 21
137.447266
 31
0.0
  0
LINE
  5
BE
100
AcDbEntity
  8
LC-004-006-----0
  6
STRICHPUNKT
 62
           2
100
AcDbLine
 10
460.499894666666
 20
220.447266
 30
0.0
 11
443.264465333333
 21
220.447266
 31
0.0
  0
LINE
  5
BF
100
AcDbEntity
  8
LC-003-002-----0
  6
AUSGEZOGEN
 62
           1
100
AcDbLine
 10
446.061584
 20
229.447266
 30
0.0
 11
445.061584
 21
228.447266
 31
0.0
  0
LINE
  5
C0
100
AcDbEntity
  8
LC-003-002-----0
  6
AUSGEZOGEN
 62
           1
100
AcDbLine
 10
457.064917333333
 20
229.447266
 30
0.0
 11
458.064917333333
 21
228.447266
 31
0.0
  0
LINE
  5
C1
100
AcDbEntity
  8
LC-003-002-----0
  6
AUSGEZOGEN
 62
           1
100
AcDbLine
 10
458.064917333333
 20
129.447266
 30
0.0
 11
457.064917333333
 21
128.447266
 31
0.0
  0
LINE
  5
C2
100
AcDbEntity
  8
LC-003-002-----0
  6
AUSGEZOGEN
 62
           1
100
AcDbLine
 10
446.061584
 20
128.447266
 30
0.0
 11
445.061584
 21
129.447266
 31
0.0
  0
CIRCLE
  5
C3
100
AcDbEntity
  8
LC-003-002-----0
  6
AUSGEZOGEN
 62
           1
100
AcDbCircle
 10
739.577128
 20
178.947266
 30
0.0
 40
32.5
  0
CIRCLE
  5
C4
100
AcDbEntity
  8
LC-003-002-----0
  6
AUSGEZOGEN
 62
           1
100
AcDbCircle
 10
739.577128
 20
178.947266
 30
0.0
 40
50.5
  0
CIRCLE
  5
C5
100
AcDbEntity
  8
LC-003-002-----0
  6
AUSGEZOGEN
 62
           1
100
AcDbCircle
 10
739.577128
 20
178.947266
 30
0.0
 40
49.5
  0
CIRCLE
  5
C6
100
AcDbEntity
  8
LC-004-006-----0
  6
STRICHPUNKT
 62
           2
100
AcDbCircle
 10
739.577128
 20
178.947266
 30
0.0
 40
41.5
  0
CIRCLE
  5
C7
100
AcDbEntity
  8
LC-003-002-----0
  6
AUSGEZOGEN
 62
           1
100
AcDbCircle
 10
739.577128
 20
220.447266
 30
0.0
 40
4.5
  0
CIRCLE
  5
C8
100
AcDbEntity
  8
LC-006-012-----0
  6
STRICHLINIE
 62
           2
100
AcDbCircle
 10
739.577128
 20
220.447266
 30
0.0
 40
7.0
  0
CIRCLE
  5
C9
100
AcDbEntity
  8
LC-003-002-----0
  6
AUSGEZOGEN
 62
           1
100
AcDbCircle
 10
698.077128
 20
178.947266
 30
0.0
 40
4.5
  0
CIRCLE
  5
CA
100
AcDbEntity
  8
LC-006-012-----0
  6
STRICHLINIE
 62
           2
100
AcDbCircle
 10
698.077128
 20
178.947266
 30
0.0
 40
7.0
  0
CIRCLE
  5
CB
100
AcDbEntity
  8
LC-003-002-----0
  6
AUSGEZOGEN
 62
           1
100
AcDbCircle
 10
739.577128
 20
137.447266
 30
0.0
 40
4.5
  0
CIRCLE
  5
CC
100
AcDbEntity
  8
LC-006-012-----0
  6
STRICHLINIE
 62
           2
100
AcDbCircle
 10
739.577128
 20
137.447266
 30
0.0
 40
7.0
  0
CIRCLE
  5
CD
100
AcDbEntity
  8
LC-003-002-----0
  6
AUSGEZOGEN
 62
           1
100
AcDbCircle
 10
781.077128
 20
178.947266
 30
0.0
 40
4.5
  0
CIRCLE
  5
CE
100
AcDbEntity
  8
LC-006-012-----0
  6
STRICHLINIE
 62
           2
100
AcDbCircle
 10
781.077128
 20
178.947266
 30
0.0
 40
7.0
  0
LINE
  5
CF
100
AcDbEntity
  8
LC-003-002-----0
  6
AUSGEZOGEN
 62
           1
100
AcDbLine
 10
459.394918666667
 20
146.447266
 30
0.0
 11
596.061585333333
 21
146.447266
 31
0.0
  0
LINE
  5
D0
100
AcDbEntity
  8
LC-003-002-----0
  6
AUSGEZOGEN
 62
           1
100
AcDbLine
 10
458.061585333333
 20
146.84727
 30
0.0
 11
459.394918666667
 21
146.84727
 31
0.0
  0
ARC
  5
D1
100
AcDbEntity
  8
LC-003-002-----0
  6
AUSGEZOGEN
 62
           1
100
AcDbCircle
 10
596.061585333333
 20
148.447266
 30
0.0
 40
2.0
100
AcDbArc
 50
270.000002999999
 51
359.999990999999
  0
LINE
  5
D2
100
AcDbEntity
  8
LC-003-002-----0
  6
AUSGEZOGEN
 62
           1
100
AcDbLine
 10
598.061585333333
 20
178.947266
 30
0.0
 11
598.061585333333
 21
148.447266
 31
0.0
  0
LINE
  5
D3
100
AcDbEntity
  8
LC-003-002-----0
  6
AUSGEZOGEN
 62
           1
100
AcDbLine
 10
459.394918666667
 20
178.947266
 30
0.0
 11
459.394918666667
 21
146.447266
 31
0.0
  0
LINE
  5
D4
100
AcDbEntity
  8
LC-003-002-----0
  6
AUSGEZOGEN
 62
           1
100
AcDbLine
 10
458.064917333333
 20
211.047262
 30
0.0
 11
459.398250666667
 21
211.047262
 31
0.0
  0
LINE
  5
D5
100
AcDbEntity
  8
LC-003-002-----0
  6
AUSGEZOGEN
 62
           1
100
AcDbLine
 10
459.398250666667
 20
211.447266
 30
0.0
 11
596.061585333333
 21
211.447266
 31
0.0
  0
ARC
  5
D6
100
AcDbEntity
  8
LC-003-002-----0
  6
AUSGEZOGEN
 62
           1
100
AcDbCircle
 10
596.061585333333
 20
209.447266
 30
0.0
 40
2.0
100
AcDbArc
 50
0.0
 51
89.999997
  0
LINE
  5
D7
100
AcDbEntity
  8
LC-003-002-----0
  6
AUSGEZOGEN
 62
           1
100
AcDbLine
 10
459.398250666667
 20
211.447266
 30
0.0
 11
459.398250666667
 21
211.047262
 31
0.0
  0
INSERT
  5
D8
100
AcDbEntity
  8
LC-005-002-RND-0
  6
AUSGEZOGEN
 62
           2
100
AcDbBlockReference
  2
*X3
 10
0.0
 20
0.0
 30
0.0
  0
ENDSEC
  0
SECTION
  2
OBJECTS
  0
DICTIONARY
  5
19
100
AcDbDictionary
  3
ACAD_GROUP
350
1A
  3
ACAD_MLINESTYLE
350
1B
  0
DICTIONARY
  5
1A
102
{ACAD_REACTORS
330
19
102
}
100
AcDbDictionary
  0
DICTIONARY
  5
1B
102
{ACAD_REACTORS
330
19
102
}
100
AcDbDictionary
  3
STANDARD
350
1C
  0
MLINESTYLE
  5
1C
102
{ACAD_REACTORS
330
1B
102
}
100
AcDbMlineStyle
  2
STANDARD
 70
           0
  3

 62
           0
 51
90.0
 52
90.0
 71
           2
 49
0.5
 62
         256
  6
BYLAYER
 49
-0.5
 62
         256
  6
BYLAYER
  0
ENDSEC
  0
EOF
