  0
SECTION
  2
HEADER
  9
$LIMMIN
 10
97.423882
 20
399.547394
  9
$LIMMAX
 10
268.623596
 20
449.188690
  9
$EXTMIN
 10
97.423882
 20
399.547394
  9
$EXTMAX
 10
268.623596
 20
449.188690
  0
ENDSEC
  0
SECTION
  2
TABLES
  0
TABLE
  2
LTYPE
 70
     3
  0
LTYPE
  2
CONTINUOUS
 70
    64
  3
Ausgezogene Linie
 72
    65
 73
     0
 40
0.0
  0
LTYPE
  2
DASHED
 70
    64
  3
__ __ __ __ __ __ __ __ __ __ __ __ __ __ __
 72
    65
 73
     2
 40
0.75
 49
0.5
 49
-0.25
  0
LTYPE
  2
DASHDOT
 70
    64
  3
__ . __ . __ . __ . __ . __ . __ . __ . __ . __
 72
    65
 73
     4
 40
1.0
 49
0.5
 49
-0.25
 49
0.0
 49
-0.25
  0
ENDTAB
  0
TABLE
  2
LAYER
 70
     4
  0
LAYER
  2
LC-003-002-----0
 70
    64
 62
     7
  6
CONTINUOUS
  0
LAYER
  2
LC-004-006-----0
 70
    64
 62
     7
  6
CONTINUOUS
  0
LAYER
  2
LC-006-012-----0
 70
    64
 62
     7
  6
CONTINUOUS
  0
LAYER
  2
LC-005-002-RND-0
 70
    64
 62
     7
  6
CONTINUOUS
  0
ENDTAB
  0
TABLE
  2
STYLE
 70
     1
  0
STYLE
  2
TXT8
 70
    64
 40
0.0
 41
1.0
 50
0.0
 71
     0
 42
3.500000
  3
TXT8
  4

  0
ENDTAB
  0
ENDSEC
  0
SECTION
  2
BLOCKS
  0
ENDSEC
  0
SECTION
  2
ENTITIES
  0
LINE
  8
LC-004-006-----0
 62
     2
  6
DASHDOT
 10
97.423882
 20
424.630737
 11
190.715240
 21
424.630737
  0
LINE
  8
LC-003-002-----0
 62
     1
  6
CONTINUOUS
 10
139.117264
 20
445.630737
 11
144.117264
 21
445.630737
  0
LINE
  8
LC-003-002-----0
 62
     1
  6
CONTINUOUS
 10
144.117264
 20
403.630737
 11
139.117264
 21
403.630737
  0
LINE
  8
LC-003-002-----0
 62
     1
  6
CONTINUOUS
 10
111.617256
 20
435.630737
 11
138.117264
 21
435.630737
  0
LINE
  8
LC-003-002-----0
 62
     1
  6
CONTINUOUS
 10
111.617256
 20
413.630737
 11
138.117264
 21
413.630737
  0
LINE
  8
LC-003-002-----0
 62
     1
  6
CONTINUOUS
 10
111.117256
 20
435.130737
 11
111.117256
 21
414.130737
  0
LINE
  8
LC-003-002-----0
 62
     1
  6
CONTINUOUS
 10
138.617264
 20
445.130737
 11
138.617264
 21
404.130737
  0
LINE
  8
LC-003-002-----0
 62
     1
  6
CONTINUOUS
 10
144.617264
 20
445.130737
 11
144.617264
 21
404.130737
  0
LINE
  8
LC-003-002-----0
 62
     1
  6
CONTINUOUS
 10
172.117264
 20
435.130737
 11
172.117264
 21
414.130737
  0
LINE
  8
LC-003-002-----0
 62
     1
  6
CONTINUOUS
 10
100.719444
 20
430.630737
 11
111.117256
 21
430.630737
  0
LINE
  8
LC-003-002-----0
 62
     1
  6
CONTINUOUS
 10
99.298065
 20
418.630737
 11
111.117256
 21
418.630737
  0
LINE
  8
LC-005-002-RND-0
 62
     2
  6
CONTINUOUS
 10
99.298065
 20
418.630737
 11
99.630470
 21
421.534637
  0
LINE
  8
LC-005-002-RND-0
 62
     2
  6
CONTINUOUS
 10
99.630470
 20
421.534637
 11
99.822998
 21
427.081116
  0
LINE
  8
LC-005-002-RND-0
 62
     2
  6
CONTINUOUS
 10
99.822998
 20
427.081116
 11
100.719444
 21
430.630737
  0
LINE
  8
LC-005-002-RND-0
 62
     2
  6
CONTINUOUS
 10
188.335983
 20
418.630737
 11
188.219864
 21
421.463562
  0
LINE
  8
LC-005-002-RND-0
 62
     2
  6
CONTINUOUS
 10
188.219864
 20
421.463562
 11
188.412384
 21
426.441467
  0
LINE
  8
LC-005-002-RND-0
 62
     2
  6
CONTINUOUS
 10
188.412384
 20
426.441467
 11
187.796204
 21
430.630737
  0
LINE
  8
LC-006-012-----0
 62
     2
  6
DASHED
 10
111.117256
 20
430.630737
 11
172.117264
 21
430.630737
  0
LINE
  8
LC-003-002-----0
 62
     1
  6
CONTINUOUS
 10
172.117264
 20
430.630737
 11
187.796204
 21
430.630737
  0
LINE
  8
LC-006-012-----0
 62
     2
  6
DASHED
 10
111.117256
 20
418.630737
 11
172.117264
 21
418.630737
  0
LINE
  8
LC-003-002-----0
 62
     1
  6
CONTINUOUS
 10
172.117264
 20
418.630737
 11
188.335983
 21
418.630737
  0
LINE
  8
LC-003-002-----0
 62
     1
  6
CONTINUOUS
 10
145.117264
 20
435.630737
 11
171.617264
 21
435.630737
  0
LINE
  8
LC-003-002-----0
 62
     1
  6
CONTINUOUS
 10
145.117264
 20
413.630737
 11
171.617264
 21
413.630737
  0
LINE
  8
LC-004-006-----0
 62
     2
  6
DASHDOT
 10
218.613449
 20
424.630737
 11
268.623596
 21
424.630737
  0
LINE
  8
LC-004-006-----0
 62
     2
  6
DASHDOT
 10
243.685806
 20
449.188690
 11
243.685806
 21
399.547394
  0
CIRCLE
  8
LC-003-002-----0
 62
     1
  6
CONTINUOUS
 10
243.685806
 20
424.630737
 40
6.000000
  0
CIRCLE
  8
LC-003-002-----0
 62
     1
  6
CONTINUOUS
 10
243.685806
 20
424.630737
 40
11.000000
  0
CIRCLE
  8
LC-003-002-----0
 62
     1
  6
CONTINUOUS
 10
243.685806
 20
424.630737
 40
21.000000
  0
CIRCLE
  8
LC-004-006-----0
 62
     2
  6
DASHDOT
 10
243.685806
 20
424.630737
 40
16.000000
  0
CIRCLE
  8
LC-003-002-----0
 62
     1
  6
CONTINUOUS
 10
243.685806
 20
440.630737
 40
4.000000
  0
CIRCLE
  8
LC-003-002-----0
 62
     1
  6
CONTINUOUS
 10
243.685806
 20
440.630737
 40
2.400000
  0
CIRCLE
  8
LC-003-002-----0
 62
     1
  6
CONTINUOUS
 10
227.685806
 20
424.630737
 40
4.000000
  0
CIRCLE
  8
LC-003-002-----0
 62
     1
  6
CONTINUOUS
 10
227.685806
 20
424.630737
 40
2.400000
  0
CIRCLE
  8
LC-003-002-----0
 62
     1
  6
CONTINUOUS
 10
243.685806
 20
408.630737
 40
4.000000
  0
CIRCLE
  8
LC-003-002-----0
 62
     1
  6
CONTINUOUS
 10
243.685806
 20
408.630737
 40
2.400000
  0
CIRCLE
  8
LC-003-002-----0
 62
     1
  6
CONTINUOUS
 10
259.685822
 20
424.630737
 40
2.400000
  0
CIRCLE
  8
LC-003-002-----0
 62
     1
  6
CONTINUOUS
 10
259.685822
 20
424.630737
 40
4.000000
  0
LINE
  8
LC-006-012-----0
 62
     2
  6
DASHED
 10
144.617264
 20
443.030731
 11
143.117264
 21
443.030731
  0
LINE
  8
LC-006-012-----0
 62
     2
  6
DASHED
 10
143.117264
 20
444.630737
 11
138.617264
 21
444.630737
  0
LINE
  8
LC-004-006-----0
 62
     2
  6
DASHDOT
 10
146.712479
 20
440.630737
 11
136.444061
 21
440.630737
  0
LINE
  8
LC-006-012-----0
 62
     2
  6
DASHED
 10
143.117264
 20
444.630737
 11
143.117264
 21
436.630737
  0
LINE
  8
LC-006-012-----0
 62
     2
  6
DASHED
 10
143.117264
 20
436.630737
 11
138.617264
 21
436.630737
  0
LINE
  8
LC-006-012-----0
 62
     2
  6
DASHED
 10
144.617264
 20
438.230743
 11
143.117264
 21
438.230743
  0
LINE
  8
LC-006-012-----0
 62
     2
  6
DASHED
 10
144.617264
 20
406.230743
 11
143.117264
 21
406.230743
  0
LINE
  8
LC-006-012-----0
 62
     2
  6
DASHED
 10
143.117264
 20
404.630737
 11
138.617264
 21
404.630737
  0
LINE
  8
LC-004-006-----0
 62
     2
  6
DASHDOT
 10
146.712479
 20
408.630737
 11
136.444061
 21
408.630737
  0
LINE
  8
LC-006-012-----0
 62
     2
  6
DASHED
 10
143.117264
 20
404.630737
 11
143.117264
 21
412.630737
  0
LINE
  8
LC-006-012-----0
 62
     2
  6
DASHED
 10
143.117264
 20
412.630737
 11
138.617264
 21
412.630737
  0
LINE
  8
LC-006-012-----0
 62
     2
  6
DASHED
 10
144.617264
 20
411.030731
 11
143.117264
 21
411.030731
  0
LINE
  8
LC-006-012-----0
 62
     2
  6
DASHED
 10
144.617264
 20
427.030731
 11
143.117264
 21
427.030731
  0
LINE
  8
LC-006-012-----0
 62
     2
  6
DASHED
 10
143.117264
 20
428.630737
 11
138.617264
 21
428.630737
  0
LINE
  8
LC-006-012-----0
 62
     2
  6
DASHED
 10
143.117264
 20
428.630737
 11
143.117264
 21
420.630737
  0
LINE
  8
LC-006-012-----0
 62
     2
  6
DASHED
 10
143.117264
 20
420.630737
 11
138.617264
 21
420.630737
  0
LINE
  8
LC-006-012-----0
 62
     2
  6
DASHED
 10
144.617264
 20
422.230743
 11
143.117264
 21
422.230743
  0
LINE
  8
LC-003-002-----0
 62
     1
  6
CONTINUOUS
 10
139.117264
 20
403.630737
 11
138.617264
 21
404.130737
  0
LINE
  8
LC-003-002-----0
 62
     1
  6
CONTINUOUS
 10
139.117264
 20
445.630737
 11
138.617264
 21
445.130737
  0
LINE
  8
LC-003-002-----0
 62
     1
  6
CONTINUOUS
 10
139.117264
 20
403.630737
 11
139.117264
 21
445.630737
  0
LINE
  8
LC-003-002-----0
 62
     1
  6
CONTINUOUS
 10
144.117264
 20
445.630737
 11
144.617264
 21
445.130737
  0
LINE
  8
LC-003-002-----0
 62
     1
  6
CONTINUOUS
 10
144.617264
 20
404.130737
 11
144.117264
 21
403.630737
  0
LINE
  8
LC-003-002-----0
 62
     1
  6
CONTINUOUS
 10
144.117264
 20
445.630737
 11
144.117264
 21
403.630737
  0
LINE
  8
LC-003-002-----0
 62
     1
  6
CONTINUOUS
 10
145.117264
 20
435.630737
 11
145.117264
 21
413.630737
  0
LINE
  8
LC-003-002-----0
 62
     1
  6
CONTINUOUS
 10
138.117264
 20
435.630737
 11
138.117264
 21
413.630737
  0
LINE
  8
LC-003-002-----0
 62
     1
  6
CONTINUOUS
 10
138.117264
 20
414.130737
 11
138.617264
 21
414.130737
  0
LINE
  8
LC-003-002-----0
 62
     1
  6
CONTINUOUS
 10
138.117264
 20
435.130737
 11
138.617264
 21
435.130737
  0
LINE
  8
LC-003-002-----0
 62
     1
  6
CONTINUOUS
 10
144.617264
 20
435.130737
 11
145.117264
 21
435.130737
  0
LINE
  8
LC-003-002-----0
 62
     1
  6
CONTINUOUS
 10
144.617264
 20
414.130737
 11
145.117264
 21
414.130737
  0
ARC
  8
LC-003-002-----0
 62
     1
  6
CONTINUOUS
 10
111.617256
 20
435.130737
 40
0.500000
 50
90.000003
 51
180.000009
  0
ARC
  8
LC-003-002-----0
 62
     1
  6
CONTINUOUS
 10
111.617256
 20
414.130737
 40
0.500000
 50
180.000009
 51
269.999997
  0
ARC
  8
LC-003-002-----0
 62
     1
  6
CONTINUOUS
 10
171.617264
 20
414.130737
 40
0.500000
 50
269.999997
 51
0.000000
  0
ARC
  8
LC-003-002-----0
 62
     1
  6
CONTINUOUS
 10
171.617264
 20
435.130737
 40
0.500000
 50
0.000000
 51
90.000003
  0
CIRCLE
  8
LC-003-002-----0
 62
     1
  6
CONTINUOUS
 10
243.685806
 20
424.630737
 40
20.500000
  0
ENDSEC
  0
EOF
