  0
SECTION
  2
HEADER
  9
$LIMMIN
 10
92.555855
 20
289.639832
  9
$LIMMAX
 10
299.643829
 20
341.323547
  9
$EXTMIN
 10
92.555855
 20
289.639832
  9
$EXTMAX
 10
299.643829
 20
341.323547
  0
ENDSEC
  0
SECTION
  2
TABLES
  0
TABLE
  2
LTYPE
 70
     3
  0
LTYPE
  2
CONTINUOUS
 70
    64
  3
Ausgezogene Linie
 72
    65
 73
     0
 40
0.0
  0
LTYPE
  2
DASHED
 70
    64
  3
__ __ __ __ __ __ __ __ __ __ __ __ __ __ __
 72
    65
 73
     2
 40
0.75
 49
0.5
 49
-0.25
  0
LTYPE
  2
DASHDOT
 70
    64
  3
__ . __ . __ . __ . __ . __ . __ . __ . __ . __
 72
    65
 73
     4
 40
1.0
 49
0.5
 49
-0.25
 49
0.0
 49
-0.25
  0
ENDTAB
  0
TABLE
  2
LAYER
 70
     4
  0
LAYER
  2
LC-003-002-----0
 70
    64
 62
     7
  6
CONTINUOUS
  0
LAYER
  2
LC-004-006-----0
 70
    64
 62
     7
  6
CONTINUOUS
  0
LAYER
  2
LC-006-012-----0
 70
    64
 62
     7
  6
CONTINUOUS
  0
LAYER
  2
LC-005-002-RND-0
 70
    64
 62
     7
  6
CONTINUOUS
  0
ENDTAB
  0
TABLE
  2
STYLE
 70
     1
  0
STYLE
  2
TXT8
 70
    64
 40
0.0
 41
1.0
 50
0.0
 71
     0
 42
3.500000
  3
TXT8
  4

  0
ENDTAB
  0
ENDSEC
  0
SECTION
  2
BLOCKS
  0
ENDSEC
  0
SECTION
  2
ENTITIES
  0
LINE
  8
LC-004-006-----0
 62
     2
  6
DASHDOT
 10
92.555855
 20
315.095673
 11
201.979630
 21
315.095673
  0
LINE
  8
LC-003-002-----0
 62
     1
  6
CONTINUOUS
 10
147.617264
 20
338.095673
 11
142.617264
 21
338.095673
  0
LINE
  8
LC-003-002-----0
 62
     1
  6
CONTINUOUS
 10
147.617264
 20
292.095673
 11
142.617264
 21
292.095673
  0
LINE
  8
LC-003-002-----0
 62
     1
  6
CONTINUOUS
 10
111.867256
 20
328.095673
 11
141.617264
 21
328.095673
  0
LINE
  8
LC-003-002-----0
 62
     1
  6
CONTINUOUS
 10
111.867256
 20
302.095673
 11
141.617264
 21
302.095673
  0
LINE
  8
LC-003-002-----0
 62
     1
  6
CONTINUOUS
 10
111.117256
 20
327.345673
 11
111.117256
 21
302.845673
  0
LINE
  8
LC-003-002-----0
 62
     1
  6
CONTINUOUS
 10
142.117264
 20
337.595673
 11
142.117264
 21
292.595673
  0
LINE
  8
LC-003-002-----0
 62
     1
  6
CONTINUOUS
 10
148.117264
 20
337.595673
 11
148.117264
 21
292.595673
  0
LINE
  8
LC-003-002-----0
 62
     1
  6
CONTINUOUS
 10
179.117264
 20
327.345673
 11
179.117264
 21
302.845673
  0
LINE
  8
LC-003-002-----0
 62
     1
  6
CONTINUOUS
 10
95.674629
 20
323.095673
 11
111.117256
 21
323.095673
  0
LINE
  8
LC-003-002-----0
 62
     1
  6
CONTINUOUS
 10
95.674629
 20
307.095673
 11
111.117256
 21
307.095673
  0
LINE
  8
LC-005-002-RND-0
 62
     2
  6
CONTINUOUS
 10
95.674629
 20
307.095673
 11
95.276581
 21
312.067596
  0
LINE
  8
LC-005-002-RND-0
 62
     2
  6
CONTINUOUS
 10
95.276581
 20
312.067596
 11
96.072678
 21
317.193085
  0
LINE
  8
LC-005-002-RND-0
 62
     2
  6
CONTINUOUS
 10
96.072678
 20
317.193085
 11
95.674629
 21
323.095673
  0
LINE
  8
LC-005-002-RND-0
 62
     2
  6
CONTINUOUS
 10
198.842117
 20
307.095673
 11
199.258911
 21
310.636658
  0
LINE
  8
LC-005-002-RND-0
 62
     2
  6
CONTINUOUS
 10
199.258911
 20
310.636658
 11
198.349075
 21
317.864838
  0
LINE
  8
LC-005-002-RND-0
 62
     2
  6
CONTINUOUS
 10
198.349075
 20
317.864838
 11
198.810715
 21
323.095673
  0
LINE
  8
LC-006-012-----0
 62
     2
  6
DASHED
 10
111.117256
 20
323.095673
 11
179.117264
 21
323.095673
  0
LINE
  8
LC-003-002-----0
 62
     1
  6
CONTINUOUS
 10
179.117264
 20
323.095673
 11
198.810715
 21
323.095673
  0
LINE
  8
LC-006-012-----0
 62
     2
  6
DASHED
 10
111.117256
 20
307.095673
 11
179.117264
 21
307.095673
  0
LINE
  8
LC-003-002-----0
 62
     1
  6
CONTINUOUS
 10
179.117264
 20
307.095673
 11
198.842117
 21
307.095673
  0
LINE
  8
LC-003-002-----0
 62
     1
  6
CONTINUOUS
 10
148.617264
 20
328.095673
 11
178.367264
 21
328.095673
  0
LINE
  8
LC-003-002-----0
 62
     1
  6
CONTINUOUS
 10
148.617264
 20
302.095673
 11
178.367264
 21
302.095673
  0
LINE
  8
LC-003-002-----0
 62
     1
  6
CONTINUOUS
 10
141.617264
 20
328.095673
 11
141.617264
 21
302.095673
  0
LINE
  8
LC-003-002-----0
 62
     1
  6
CONTINUOUS
 10
148.617264
 20
328.095673
 11
148.617264
 21
302.095673
  0
LINE
  8
LC-003-002-----0
 62
     1
  6
CONTINUOUS
 10
141.617264
 20
302.595673
 11
142.117264
 21
302.595673
  0
LINE
  8
LC-003-002-----0
 62
     1
  6
CONTINUOUS
 10
141.617264
 20
327.595673
 11
142.117264
 21
327.595673
  0
LINE
  8
LC-003-002-----0
 62
     1
  6
CONTINUOUS
 10
148.117264
 20
327.595673
 11
148.617264
 21
327.595673
  0
LINE
  8
LC-003-002-----0
 62
     1
  6
CONTINUOUS
 10
148.117264
 20
302.595673
 11
148.617264
 21
302.595673
  0
LINE
  8
LC-003-002-----0
 62
     1
  6
CONTINUOUS
 10
142.617264
 20
292.095673
 11
142.117264
 21
292.595673
  0
LINE
  8
LC-003-002-----0
 62
     1
  6
CONTINUOUS
 10
142.617264
 20
338.095673
 11
142.117264
 21
337.595673
  0
LINE
  8
LC-003-002-----0
 62
     1
  6
CONTINUOUS
 10
142.617264
 20
292.095673
 11
142.617264
 21
338.095673
  0
LINE
  8
LC-003-002-----0
 62
     1
  6
CONTINUOUS
 10
148.117264
 20
337.595673
 11
147.617264
 21
338.095673
  0
LINE
  8
LC-003-002-----0
 62
     1
  6
CONTINUOUS
 10
148.117264
 20
292.595673
 11
147.617264
 21
292.095673
  0
LINE
  8
LC-003-002-----0
 62
     1
  6
CONTINUOUS
 10
147.617264
 20
338.095673
 11
147.617264
 21
292.095673
  0
ARC
  8
LC-003-002-----0
 62
     1
  6
CONTINUOUS
 10
111.867256
 20
302.845673
 40
0.750000
 50
180.000009
 51
269.999997
  0
ARC
  8
LC-003-002-----0
 62
     1
  6
CONTINUOUS
 10
111.867256
 20
327.345673
 40
0.750000
 50
90.000003
 51
180.000009
  0
ARC
  8
LC-003-002-----0
 62
     1
  6
CONTINUOUS
 10
178.367264
 20
327.345673
 40
0.750000
 50
0.000000
 51
90.000003
  0
ARC
  8
LC-003-002-----0
 62
     1
  6
CONTINUOUS
 10
178.367264
 20
302.845673
 40
0.750000
 50
269.999997
 51
0.000000
  0
LINE
  8
LC-004-006-----0
 62
     2
  6
DASHDOT
 10
246.594009
 20
315.095673
 11
299.643829
 21
315.095673
  0
LINE
  8
LC-004-006-----0
 62
     2
  6
DASHDOT
 10
272.793549
 20
289.639832
 11
272.793549
 21
341.323547
  0
CIRCLE
  8
LC-003-002-----0
 62
     1
  6
CONTINUOUS
 10
272.793549
 20
315.095673
 40
8.000000
  0
CIRCLE
  8
LC-003-002-----0
 62
     1
  6
CONTINUOUS
 10
272.793549
 20
315.095673
 40
13.000000
  0
CIRCLE
  8
LC-003-002-----0
 62
     1
  6
CONTINUOUS
 10
272.793549
 20
315.095673
 40
23.000000
  0
CIRCLE
  8
LC-004-006-----0
 62
     2
  6
DASHDOT
 10
272.793549
 20
315.095673
 40
18.000000
  0
CIRCLE
  8
LC-003-002-----0
 62
     1
  6
CONTINUOUS
 10
272.793549
 20
333.095673
 40
4.000000
  0
CIRCLE
  8
LC-003-002-----0
 62
     1
  6
CONTINUOUS
 10
272.793549
 20
333.095673
 40
2.400000
  0
CIRCLE
  8
LC-003-002-----0
 62
     1
  6
CONTINUOUS
 10
254.793549
 20
315.095673
 40
4.000000
  0
CIRCLE
  8
LC-003-002-----0
 62
     1
  6
CONTINUOUS
 10
254.793549
 20
315.095673
 40
2.400000
  0
CIRCLE
  8
LC-003-002-----0
 62
     1
  6
CONTINUOUS
 10
272.793549
 20
297.095673
 40
4.000000
  0
CIRCLE
  8
LC-003-002-----0
 62
     1
  6
CONTINUOUS
 10
272.793549
 20
297.095673
 40
2.400000
  0
CIRCLE
  8
LC-003-002-----0
 62
     1
  6
CONTINUOUS
 10
290.793549
 20
315.095673
 40
2.400000
  0
CIRCLE
  8
LC-003-002-----0
 62
     1
  6
CONTINUOUS
 10
290.793549
 20
315.095673
 40
4.000000
  0
LINE
  8
LC-004-006-----0
 62
     2
  6
DASHDOT
 10
150.484177
 20
333.095673
 11
139.842865
 21
333.095673
  0
LINE
  8
LC-006-012-----0
 62
     2
  6
DASHED
 10
146.617264
 20
337.095673
 11
142.117264
 21
337.095673
  0
LINE
  8
LC-006-012-----0
 62
     2
  6
DASHED
 10
148.117264
 20
335.495667
 11
146.617264
 21
335.495667
  0
LINE
  8
LC-006-012-----0
 62
     2
  6
DASHED
 10
146.617264
 20
337.095673
 11
146.617264
 21
329.095673
  0
LINE
  8
LC-006-012-----0
 62
     2
  6
DASHED
 10
148.117264
 20
330.695648
 11
146.617264
 21
330.695648
  0
LINE
  8
LC-006-012-----0
 62
     2
  6
DASHED
 10
146.617264
 20
329.095673
 11
142.117264
 21
329.095673
  0
LINE
  8
LC-006-012-----0
 62
     2
  6
DASHED
 10
146.617264
 20
293.095673
 11
142.117264
 21
293.095673
  0
LINE
  8
LC-006-012-----0
 62
     2
  6
DASHED
 10
146.617264
 20
293.095673
 11
146.617264
 21
301.095673
  0
LINE
  8
LC-006-012-----0
 62
     2
  6
DASHED
 10
146.617264
 20
301.095673
 11
142.117264
 21
301.095673
  0
LINE
  8
LC-004-006-----0
 62
     2
  6
DASHDOT
 10
150.484177
 20
297.095673
 11
139.842865
 21
297.095673
  0
LINE
  8
LC-006-012-----0
 62
     2
  6
DASHED
 10
148.117264
 20
294.695648
 11
146.617264
 21
294.695648
  0
LINE
  8
LC-006-012-----0
 62
     2
  6
DASHED
 10
148.117264
 20
299.495667
 11
146.617264
 21
299.495667
  0
LINE
  8
LC-006-012-----0
 62
     2
  6
DASHED
 10
146.617264
 20
319.095673
 11
146.617264
 21
311.095673
  0
LINE
  8
LC-006-012-----0
 62
     2
  6
DASHED
 10
148.117264
 20
312.695648
 11
146.617264
 21
312.695648
  0
LINE
  8
LC-006-012-----0
 62
     2
  6
DASHED
 10
146.617264
 20
311.095673
 11
142.117264
 21
311.095673
  0
LINE
  8
LC-006-012-----0
 62
     2
  6
DASHED
 10
148.117264
 20
317.495667
 11
146.617264
 21
317.495667
  0
LINE
  8
LC-006-012-----0
 62
     2
  6
DASHED
 10
146.617264
 20
319.095673
 11
142.117264
 21
319.095673
  0
CIRCLE
  8
LC-003-002-----0
 62
     1
  6
CONTINUOUS
 10
272.793549
 20
315.095673
 40
22.500000
  0
ENDSEC
  0
EOF
