  0
SECTION
  2
HEADER
  9
$LIMMIN
 10
92.622772
 20
168.751846
  9
$LIMMAX
 10
317.935059
 20
230.721298
  9
$EXTMIN
 10
92.622772
 20
168.751846
  9
$EXTMAX
 10
317.935059
 20
230.721298
  0
ENDSEC
  0
SECTION
  2
TABLES
  0
TABLE
  2
LTYPE
 70
     3
  0
LTYPE
  2
CONTINUOUS
 70
    64
  3
Ausgezogene Linie
 72
    65
 73
     0
 40
0.0
  0
LTYPE
  2
DASHED
 70
    64
  3
__ __ __ __ __ __ __ __ __ __ __ __ __ __ __
 72
    65
 73
     2
 40
0.75
 49
0.5
 49
-0.25
  0
LTYPE
  2
DASHDOT
 70
    64
  3
__ . __ . __ . __ . __ . __ . __ . __ . __ . __
 72
    65
 73
     4
 40
1.0
 49
0.5
 49
-0.25
 49
0.0
 49
-0.25
  0
ENDTAB
  0
TABLE
  2
LAYER
 70
     4
  0
LAYER
  2
LC-003-002-----0
 70
    64
 62
     7
  6
CONTINUOUS
  0
LAYER
  2
LC-004-006-----0
 70
    64
 62
     7
  6
CONTINUOUS
  0
LAYER
  2
LC-006-012-----0
 70
    64
 62
     7
  6
CONTINUOUS
  0
LAYER
  2
LC-005-002-RND-0
 70
    64
 62
     7
  6
CONTINUOUS
  0
ENDTAB
  0
TABLE
  2
STYLE
 70
     1
  0
STYLE
  2
TXT8
 70
    64
 40
0.0
 41
1.0
 50
0.0
 71
     0
 42
3.500000
  3
TXT8
  4

  0
ENDTAB
  0
ENDSEC
  0
SECTION
  2
BLOCKS
  0
ENDSEC
  0
SECTION
  2
ENTITIES
  0
LINE
  8
LC-004-006-----0
 62
     2
  6
DASHDOT
 10
92.622772
 20
199.853149
 11
212.473618
 21
199.853149
  0
LINE
  8
LC-003-002-----0
 62
     1
  6
CONTINUOUS
 10
111.867256
 20
215.853149
 11
146.367264
 21
215.853149
  0
LINE
  8
LC-003-002-----0
 62
     1
  6
CONTINUOUS
 10
111.867256
 20
183.853149
 11
146.367264
 21
183.853149
  0
LINE
  8
LC-003-002-----0
 62
     1
  6
CONTINUOUS
 10
154.367264
 20
226.853149
 11
147.867264
 21
226.853149
  0
LINE
  8
LC-003-002-----0
 62
     1
  6
CONTINUOUS
 10
154.367264
 20
172.853149
 11
147.867264
 21
172.853149
  0
LINE
  8
LC-003-002-----0
 62
     1
  6
CONTINUOUS
 10
111.117256
 20
215.103149
 11
111.117256
 21
184.603149
  0
LINE
  8
LC-003-002-----0
 62
     1
  6
CONTINUOUS
 10
147.117264
 20
173.603149
 11
147.117264
 21
226.103149
  0
LINE
  8
LC-003-002-----0
 62
     1
  6
CONTINUOUS
 10
155.117264
 20
226.103149
 11
155.117264
 21
173.603149
  0
LINE
  8
LC-003-002-----0
 62
     1
  6
CONTINUOUS
 10
191.117264
 20
215.103149
 11
191.117264
 21
184.603149
  0
LINE
  8
LC-003-002-----0
 62
     1
  6
CONTINUOUS
 10
94.484825
 20
209.853149
 11
111.117256
 21
209.853149
  0
LINE
  8
LC-003-002-----0
 62
     1
  6
CONTINUOUS
 10
95.128716
 20
189.853149
 11
111.117256
 21
189.853149
  0
LINE
  8
LC-005-002-RND-0
 62
     2
  6
CONTINUOUS
 10
95.128716
 20
189.853149
 11
95.432831
 21
195.846802
  0
LINE
  8
LC-005-002-RND-0
 62
     2
  6
CONTINUOUS
 10
95.432831
 20
195.846802
 11
93.831512
 21
204.977692
  0
LINE
  8
LC-005-002-RND-0
 62
     2
  6
CONTINUOUS
 10
93.831512
 20
204.977692
 11
94.484825
 21
209.853149
  0
LINE
  8
LC-005-002-RND-0
 62
     2
  6
CONTINUOUS
 10
208.737625
 20
189.853149
 11
207.783310
 21
194.954376
  0
LINE
  8
LC-005-002-RND-0
 62
     2
  6
CONTINUOUS
 10
207.783310
 20
194.954376
 11
208.723450
 21
205.374329
  0
LINE
  8
LC-005-002-RND-0
 62
     2
  6
CONTINUOUS
 10
208.723450
 20
205.374329
 11
208.159683
 21
209.853149
  0
LINE
  8
LC-003-002-----0
 62
     1
  6
CONTINUOUS
 10
147.117264
 20
173.603149
 11
147.867264
 21
172.853149
  0
LINE
  8
LC-003-002-----0
 62
     1
  6
CONTINUOUS
 10
147.117264
 20
226.103149
 11
147.867264
 21
226.853149
  0
LINE
  8
LC-003-002-----0
 62
     1
  6
CONTINUOUS
 10
147.867264
 20
172.853149
 11
147.867264
 21
226.853149
  0
LINE
  8
LC-003-002-----0
 62
     1
  6
CONTINUOUS
 10
155.117264
 20
226.103149
 11
154.367264
 21
226.853149
  0
LINE
  8
LC-003-002-----0
 62
     1
  6
CONTINUOUS
 10
155.117264
 20
173.603149
 11
154.367264
 21
172.853149
  0
LINE
  8
LC-003-002-----0
 62
     1
  6
CONTINUOUS
 10
154.367264
 20
226.853149
 11
154.367264
 21
172.853149
  0
LINE
  8
LC-003-002-----0
 62
     1
  6
CONTINUOUS
 10
155.867264
 20
215.853149
 11
155.867264
 21
183.853149
  0
LINE
  8
LC-003-002-----0
 62
     1
  6
CONTINUOUS
 10
146.367264
 20
183.853149
 11
146.367264
 21
215.853149
  0
LINE
  8
LC-003-002-----0
 62
     1
  6
CONTINUOUS
 10
146.367264
 20
215.103149
 11
147.117264
 21
215.103149
  0
LINE
  8
LC-003-002-----0
 62
     1
  6
CONTINUOUS
 10
146.367264
 20
184.603149
 11
147.117264
 21
184.603149
  0
LINE
  8
LC-003-002-----0
 62
     1
  6
CONTINUOUS
 10
155.117264
 20
215.103149
 11
155.867264
 21
215.103149
  0
LINE
  8
LC-003-002-----0
 62
     1
  6
CONTINUOUS
 10
155.867264
 20
215.853149
 11
190.367264
 21
215.853149
  0
LINE
  8
LC-003-002-----0
 62
     1
  6
CONTINUOUS
 10
155.867264
 20
183.853149
 11
190.367264
 21
183.853149
  0
LINE
  8
LC-003-002-----0
 62
     1
  6
CONTINUOUS
 10
155.117264
 20
184.603149
 11
155.867264
 21
184.603149
  0
LINE
  8
LC-006-012-----0
 62
     2
  6
DASHED
 10
111.117256
 20
209.853149
 11
191.117264
 21
209.853149
  0
LINE
  8
LC-003-002-----0
 62
     1
  6
CONTINUOUS
 10
191.117264
 20
209.853149
 11
208.159683
 21
209.853149
  0
LINE
  8
LC-006-012-----0
 62
     2
  6
DASHED
 10
111.117256
 20
189.853149
 11
191.117264
 21
189.853149
  0
LINE
  8
LC-003-002-----0
 62
     1
  6
CONTINUOUS
 10
191.117264
 20
189.853149
 11
208.737625
 21
189.853149
  0
ARC
  8
LC-003-002-----0
 62
     1
  6
CONTINUOUS
 10
111.867256
 20
215.103149
 40
0.750000
 50
90.000003
 51
180.000009
  0
ARC
  8
LC-003-002-----0
 62
     1
  6
CONTINUOUS
 10
111.867256
 20
184.603149
 40
0.750000
 50
180.000009
 51
269.999997
  0
ARC
  8
LC-003-002-----0
 62
     1
  6
CONTINUOUS
 10
190.367264
 20
184.603149
 40
0.750000
 50
269.999997
 51
0.000000
  0
ARC
  8
LC-003-002-----0
 62
     1
  6
CONTINUOUS
 10
190.367264
 20
215.103149
 40
0.750000
 50
0.000000
 51
90.000003
  0
LINE
  8
LC-004-006-----0
 62
     2
  6
DASHDOT
 10
157.698227
 20
221.353149
 11
143.997314
 21
221.353149
  0
LINE
  8
LC-006-012-----0
 62
     2
  6
DASHED
 10
152.817261
 20
226.353149
 11
147.367264
 21
226.353149
  0
CIRCLE
  8
LC-003-002-----0
 62
     1
  6
CONTINUOUS
 10
287.706696
 20
199.853149
 40
10.000000
  0
CIRCLE
  8
LC-003-002-----0
 62
     1
  6
CONTINUOUS
 10
287.706696
 20
199.853149
 40
27.000000
  0
CIRCLE
  8
LC-004-006-----0
 62
     2
  6
DASHDOT
 10
287.706696
 20
199.853149
 40
21.500000
  0
CIRCLE
  8
LC-003-002-----0
 62
     1
  6
CONTINUOUS
 10
287.706696
 20
221.353149
 40
5.000000
  0
CIRCLE
  8
LC-003-002-----0
 62
     1
  6
CONTINUOUS
 10
287.706696
 20
221.353149
 40
2.900000
  0
CIRCLE
  8
LC-003-002-----0
 62
     1
  6
CONTINUOUS
 10
266.206696
 20
199.853149
 40
5.000000
  0
CIRCLE
  8
LC-003-002-----0
 62
     1
  6
CONTINUOUS
 10
266.206696
 20
199.853149
 40
2.900000
  0
CIRCLE
  8
LC-003-002-----0
 62
     1
  6
CONTINUOUS
 10
287.706696
 20
178.353149
 40
2.900000
  0
CIRCLE
  8
LC-003-002-----0
 62
     1
  6
CONTINUOUS
 10
287.706696
 20
178.353149
 40
5.000000
  0
CIRCLE
  8
LC-003-002-----0
 62
     1
  6
CONTINUOUS
 10
309.206696
 20
199.853149
 40
2.900000
  0
CIRCLE
  8
LC-003-002-----0
 62
     1
  6
CONTINUOUS
 10
309.206696
 20
199.853149
 40
5.000000
  0
LINE
  8
LC-004-006-----0
 62
     2
  6
DASHDOT
 10
287.706696
 20
168.751846
 11
287.706696
 21
230.721298
  0
LINE
  8
LC-004-006-----0
 62
     2
  6
DASHDOT
 10
257.148987
 20
199.853149
 11
317.935059
 21
199.853149
  0
LINE
  8
LC-006-012-----0
 62
     2
  6
DASHED
 10
155.117264
 20
224.253143
 11
152.817261
 21
224.253143
  0
CIRCLE
  8
LC-003-002-----0
 62
     1
  6
CONTINUOUS
 10
287.706696
 20
199.853149
 40
16.000000
  0
CIRCLE
  8
LC-003-002-----0
 62
     1
  6
CONTINUOUS
 10
287.706696
 20
199.853149
 40
27.000000
  0
CIRCLE
  8
LC-004-006-----0
 62
     2
  6
DASHDOT
 10
287.706696
 20
199.853149
 40
21.500000
  0
CIRCLE
  8
LC-003-002-----0
 62
     1
  6
CONTINUOUS
 10
266.206696
 20
199.853149
 40
5.000000
  0
CIRCLE
  8
LC-003-002-----0
 62
     1
  6
CONTINUOUS
 10
266.206696
 20
199.853149
 40
2.900000
  0
CIRCLE
  8
LC-003-002-----0
 62
     1
  6
CONTINUOUS
 10
287.706696
 20
178.353149
 40
5.000000
  0
CIRCLE
  8
LC-003-002-----0
 62
     1
  6
CONTINUOUS
 10
287.706696
 20
178.353149
 40
2.900000
  0
CIRCLE
  8
LC-003-002-----0
 62
     1
  6
CONTINUOUS
 10
309.206696
 20
199.853149
 40
2.900000
  0
CIRCLE
  8
LC-003-002-----0
 62
     1
  6
CONTINUOUS
 10
309.206696
 20
199.853149
 40
5.000000
  0
CIRCLE
  8
LC-003-002-----0
 62
     1
  6
CONTINUOUS
 10
287.706696
 20
221.353149
 40
2.900000
  0
CIRCLE
  8
LC-003-002-----0
 62
     1
  6
CONTINUOUS
 10
287.706696
 20
221.353149
 40
5.000000
  0
LINE
  8
LC-006-012-----0
 62
     2
  6
DASHED
 10
152.817261
 20
216.353149
 11
152.817261
 21
226.353149
  0
LINE
  8
LC-006-012-----0
 62
     2
  6
DASHED
 10
152.817261
 20
216.353149
 11
147.117264
 21
216.353149
  0
LINE
  8
LC-006-012-----0
 62
     2
  6
DASHED
 10
155.117264
 20
218.453140
 11
152.817261
 21
218.453140
  0
LINE
  8
LC-004-006-----0
 62
     2
  6
DASHDOT
 10
157.698227
 20
178.353149
 11
143.997314
 21
178.353149
  0
LINE
  8
LC-006-012-----0
 62
     2
  6
DASHED
 10
155.117264
 20
175.453140
 11
152.817261
 21
175.453140
  0
LINE
  8
LC-006-012-----0
 62
     2
  6
DASHED
 10
152.817261
 20
183.353149
 11
152.817261
 21
173.353149
  0
LINE
  8
LC-006-012-----0
 62
     2
  6
DASHED
 10
152.817261
 20
183.353149
 11
147.117264
 21
183.353149
  0
LINE
  8
LC-006-012-----0
 62
     2
  6
DASHED
 10
155.117264
 20
181.253143
 11
152.817261
 21
181.253143
  0
LINE
  8
LC-006-012-----0
 62
     2
  6
DASHED
 10
152.817261
 20
173.353149
 11
147.367264
 21
173.353149
  0
LINE
  8
LC-006-012-----0
 62
     2
  6
DASHED
 10
152.817261
 20
194.853149
 11
152.817261
 21
204.853149
  0
LINE
  8
LC-006-012-----0
 62
     2
  6
DASHED
 10
152.817261
 20
194.853149
 11
147.117264
 21
194.853149
  0
LINE
  8
LC-006-012-----0
 62
     2
  6
DASHED
 10
155.117264
 20
196.953140
 11
152.817261
 21
196.953140
  0
LINE
  8
LC-006-012-----0
 62
     2
  6
DASHED
 10
155.117264
 20
202.753143
 11
152.817261
 21
202.753143
  0
LINE
  8
LC-006-012-----0
 62
     2
  6
DASHED
 10
152.817261
 20
204.853149
 11
147.117264
 21
204.853149
  0
CIRCLE
  8
LC-003-002-----0
 62
     1
  6
CONTINUOUS
 10
287.706696
 20
199.853149
 40
26.250000
  0
ENDSEC
  0
EOF
