  0
SECTION
  2
HEADER
  9
$LIMMIN
 10
375.537933
 20
292.568939
  9
$LIMMAX
 10
746.729004
 20
404.079559
  9
$EXTMIN
 10
375.537933
 20
292.568939
  9
$EXTMAX
 10
746.729004
 20
404.079559
  0
ENDSEC
  0
SECTION
  2
TABLES
  0
TABLE
  2
LTYPE
 70
     3
  0
LTYPE
  2
CONTINUOUS
 70
    64
  3
Ausgezogene Linie
 72
    65
 73
     0
 40
0.0
  0
LTYPE
  2
DASHED
 70
    64
  3
__ __ __ __ __ __ __ __ __ __ __ __ __ __ __
 72
    65
 73
     2
 40
0.75
 49
0.5
 49
-0.25
  0
LTYPE
  2
DASHDOT
 70
    64
  3
__ . __ . __ . __ . __ . __ . __ . __ . __ . __
 72
    65
 73
     4
 40
1.0
 49
0.5
 49
-0.25
 49
0.0
 49
-0.25
  0
ENDTAB
  0
TABLE
  2
LAYER
 70
     4
  0
LAYER
  2
LC-003-002-----0
 70
    64
 62
     7
  6
CONTINUOUS
  0
LAYER
  2
LC-004-006-----0
 70
    64
 62
     7
  6
CONTINUOUS
  0
LAYER
  2
LC-006-012-----0
 70
    64
 62
     7
  6
CONTINUOUS
  0
LAYER
  2
LC-005-002-RND-0
 70
    64
 62
     7
  6
CONTINUOUS
  0
ENDTAB
  0
TABLE
  2
STYLE
 70
     1
  0
STYLE
  2
TXT8
 70
    64
 40
0.0
 41
1.0
 50
0.0
 71
     0
 42
3.500000
  3
TXT8
  4

  0
ENDTAB
  0
ENDSEC
  0
SECTION
  2
BLOCKS
  0
ENDSEC
  0
SECTION
  2
ENTITIES
  0
LINE
  8
LC-004-006-----0
 62
     2
  6
DASHDOT
 10
375.537933
 20
348.817169
 11
586.040649
 21
348.817169
  0
LINE
  8
LC-003-002-----0
 62
     1
  6
CONTINUOUS
 10
403.417419
 20
379.817169
 11
469.917419
 21
379.817169
  0
LINE
  8
LC-003-002-----0
 62
     1
  6
CONTINUOUS
 10
403.417419
 20
317.817169
 11
469.917419
 21
317.817169
  0
LINE
  8
LC-003-002-----0
 62
     1
  6
CONTINUOUS
 10
471.917419
 20
397.817169
 11
482.917419
 21
397.817169
  0
LINE
  8
LC-003-002-----0
 62
     1
  6
CONTINUOUS
 10
482.917419
 20
299.817169
 11
471.917419
 21
299.817169
  0
LINE
  8
LC-003-002-----0
 62
     1
  6
CONTINUOUS
 10
401.917419
 20
378.317169
 11
401.917419
 21
319.317169
  0
LINE
  8
LC-003-002-----0
 62
     1
  6
CONTINUOUS
 10
470.917419
 20
300.817169
 11
470.917419
 21
396.817169
  0
LINE
  8
LC-003-002-----0
 62
     1
  6
CONTINUOUS
 10
552.917419
 20
378.317169
 11
552.917419
 21
319.317169
  0
LINE
  8
LC-003-002-----0
 62
     1
  6
CONTINUOUS
 10
483.917419
 20
396.817169
 11
483.917419
 21
300.817169
  0
LINE
  8
LC-003-002-----0
 62
     1
  6
CONTINUOUS
 10
484.917419
 20
379.817169
 11
551.417419
 21
379.817169
  0
LINE
  8
LC-003-002-----0
 62
     1
  6
CONTINUOUS
 10
484.917419
 20
317.817169
 11
551.417419
 21
317.817169
  0
LINE
  8
LC-003-002-----0
 62
     1
  6
CONTINUOUS
 10
381.545380
 20
368.817169
 11
401.917419
 21
368.817169
  0
LINE
  8
LC-003-002-----0
 62
     1
  6
CONTINUOUS
 10
380.075684
 20
328.817169
 11
401.917419
 21
328.817169
  0
LINE
  8
LC-005-002-RND-0
 62
     2
  6
CONTINUOUS
 10
380.075684
 20
328.817169
 11
381.775543
 21
335.965149
  0
LINE
  8
LC-005-002-RND-0
 62
     2
  6
CONTINUOUS
 10
381.775543
 20
335.965149
 11
380.481567
 21
347.920441
  0
LINE
  8
LC-005-002-RND-0
 62
     2
  6
CONTINUOUS
 10
380.481567
 20
347.920441
 11
382.638184
 21
360.831116
  0
LINE
  8
LC-005-002-RND-0
 62
     2
  6
CONTINUOUS
 10
382.638184
 20
360.831116
 11
381.545380
 21
368.817169
  0
LINE
  8
LC-005-002-RND-0
 62
     2
  6
CONTINUOUS
 10
579.271729
 20
328.817169
 11
579.587402
 21
333.099060
  0
LINE
  8
LC-005-002-RND-0
 62
     2
  6
CONTINUOUS
 10
579.587402
 20
333.099060
 11
578.309998
 21
344.098999
  0
LINE
  8
LC-005-002-RND-0
 62
     2
  6
CONTINUOUS
 10
578.309998
 20
344.098999
 11
579.371704
 21
359.398071
  0
LINE
  8
LC-005-002-RND-0
 62
     2
  6
CONTINUOUS
 10
579.371704
 20
359.398071
 11
578.850830
 21
368.817169
  0
LINE
  8
LC-006-012-----0
 62
     2
  6
DASHED
 10
401.917419
 20
368.817169
 11
552.917419
 21
368.817169
  0
LINE
  8
LC-003-002-----0
 62
     1
  6
CONTINUOUS
 10
552.917419
 20
368.817169
 11
578.850830
 21
368.817169
  0
LINE
  8
LC-006-012-----0
 62
     2
  6
DASHED
 10
401.917419
 20
328.817169
 11
552.917419
 21
328.817169
  0
LINE
  8
LC-003-002-----0
 62
     1
  6
CONTINUOUS
 10
552.917419
 20
328.817169
 11
579.271729
 21
328.817169
  0
LINE
  8
LC-003-002-----0
 62
     1
  6
CONTINUOUS
 10
484.917419
 20
379.817169
 11
484.917419
 21
317.817169
  0
LINE
  8
LC-003-002-----0
 62
     1
  6
CONTINUOUS
 10
469.917419
 20
379.817169
 11
469.917419
 21
317.817169
  0
LINE
  8
LC-003-002-----0
 62
     1
  6
CONTINUOUS
 10
469.917419
 20
318.817169
 11
470.917419
 21
318.817169
  0
LINE
  8
LC-003-002-----0
 62
     1
  6
CONTINUOUS
 10
470.917419
 20
300.817169
 11
471.917419
 21
299.817169
  0
LINE
  8
LC-003-002-----0
 62
     1
  6
CONTINUOUS
 10
469.917419
 20
378.817169
 11
470.917419
 21
378.817169
  0
LINE
  8
LC-003-002-----0
 62
     1
  6
CONTINUOUS
 10
483.917419
 20
318.817169
 11
484.917419
 21
318.817169
  0
LINE
  8
LC-003-002-----0
 62
     1
  6
CONTINUOUS
 10
483.917419
 20
378.817169
 11
484.917419
 21
378.817169
  0
LINE
  8
LC-003-002-----0
 62
     1
  6
CONTINUOUS
 10
470.917419
 20
396.817169
 11
471.917419
 21
397.817169
  0
LINE
  8
LC-003-002-----0
 62
     1
  6
CONTINUOUS
 10
471.917419
 20
299.817169
 11
471.917419
 21
397.817169
  0
LINE
  8
LC-003-002-----0
 62
     1
  6
CONTINUOUS
 10
482.917419
 20
397.817169
 11
483.917419
 21
396.817169
  0
LINE
  8
LC-003-002-----0
 62
     1
  6
CONTINUOUS
 10
483.917419
 20
300.817169
 11
482.917419
 21
299.817169
  0
LINE
  8
LC-003-002-----0
 62
     1
  6
CONTINUOUS
 10
482.917419
 20
397.817169
 11
482.917419
 21
299.817169
  0
LINE
  8
LC-004-006-----0
 62
     2
  6
DASHDOT
 10
633.588257
 20
348.817169
 11
746.729004
 21
348.817169
  0
LINE
  8
LC-004-006-----0
 62
     2
  6
DASHDOT
 10
690.522095
 20
404.079559
 11
690.522095
 21
292.568939
  0
CIRCLE
  8
LC-003-002-----0
 62
     1
  6
CONTINUOUS
 10
690.522095
 20
348.817169
 40
20.000000
  0
CIRCLE
  8
LC-003-002-----0
 62
     1
  6
CONTINUOUS
 10
690.522095
 20
348.817169
 40
31.000000
  0
CIRCLE
  8
LC-003-002-----0
 62
     1
  6
CONTINUOUS
 10
690.522095
 20
348.817169
 40
49.000000
  0
CIRCLE
  8
LC-004-006-----0
 62
     2
  6
DASHDOT
 10
690.522095
 20
348.817169
 40
40.000000
  0
CIRCLE
  8
LC-003-002-----0
 62
     1
  6
CONTINUOUS
 10
690.522095
 20
388.817169
 40
7.500000
  0
CIRCLE
  8
LC-003-002-----0
 62
     1
  6
CONTINUOUS
 10
690.522095
 20
388.817169
 40
4.500000
  0
CIRCLE
  8
LC-003-002-----0
 62
     1
  6
CONTINUOUS
 10
650.522095
 20
348.817169
 40
7.500000
  0
CIRCLE
  8
LC-003-002-----0
 62
     1
  6
CONTINUOUS
 10
650.522095
 20
348.817169
 40
4.500000
  0
CIRCLE
  8
LC-003-002-----0
 62
     1
  6
CONTINUOUS
 10
690.522095
 20
308.817169
 40
7.500000
  0
CIRCLE
  8
LC-003-002-----0
 62
     1
  6
CONTINUOUS
 10
690.522095
 20
308.817169
 40
4.500000
  0
CIRCLE
  8
LC-003-002-----0
 62
     1
  6
CONTINUOUS
 10
730.522095
 20
348.817169
 40
4.500000
  0
CIRCLE
  8
LC-003-002-----0
 62
     1
  6
CONTINUOUS
 10
730.522095
 20
348.817169
 40
7.500000
  0
LINE
  8
LC-004-006-----0
 62
     2
  6
DASHDOT
 10
489.156006
 20
388.817169
 11
465.298523
 21
388.817169
  0
LINE
  8
LC-006-012-----0
 62
     2
  6
DASHED
 10
479.917419
 20
396.317169
 11
470.917419
 21
396.317169
  0
LINE
  8
LC-006-012-----0
 62
     2
  6
DASHED
 10
483.917419
 20
393.317169
 11
479.917419
 21
393.317169
  0
LINE
  8
LC-006-012-----0
 62
     2
  6
DASHED
 10
479.917419
 20
381.317169
 11
479.917419
 21
396.317169
  0
LINE
  8
LC-006-012-----0
 62
     2
  6
DASHED
 10
479.917419
 20
381.317169
 11
470.917419
 21
381.317169
  0
LINE
  8
LC-006-012-----0
 62
     2
  6
DASHED
 10
483.917419
 20
384.317169
 11
479.917419
 21
384.317169
  0
LINE
  8
LC-006-012-----0
 62
     2
  6
DASHED
 10
479.917419
 20
356.317169
 11
470.917419
 21
356.317169
  0
LINE
  8
LC-006-012-----0
 62
     2
  6
DASHED
 10
479.917419
 20
341.317169
 11
470.917419
 21
341.317169
  0
LINE
  8
LC-006-012-----0
 62
     2
  6
DASHED
 10
479.917419
 20
341.317169
 11
479.917419
 21
356.317169
  0
LINE
  8
LC-006-012-----0
 62
     2
  6
DASHED
 10
483.917419
 20
353.317169
 11
479.917419
 21
353.317169
  0
LINE
  8
LC-006-012-----0
 62
     2
  6
DASHED
 10
483.917419
 20
344.317169
 11
479.917419
 21
344.317169
  0
LINE
  8
LC-006-012-----0
 62
     2
  6
DASHED
 10
479.917419
 20
316.317169
 11
470.917419
 21
316.317169
  0
LINE
  8
LC-006-012-----0
 62
     2
  6
DASHED
 10
479.917419
 20
301.317169
 11
470.917419
 21
301.317169
  0
LINE
  8
LC-006-012-----0
 62
     2
  6
DASHED
 10
479.917419
 20
316.317169
 11
479.917419
 21
301.317169
  0
LINE
  8
LC-006-012-----0
 62
     2
  6
DASHED
 10
483.917419
 20
304.317169
 11
479.917419
 21
304.317169
  0
LINE
  8
LC-006-012-----0
 62
     2
  6
DASHED
 10
483.917419
 20
313.317169
 11
479.917419
 21
313.317169
  0
LINE
  8
LC-004-006-----0
 62
     2
  6
DASHDOT
 10
489.156006
 20
308.817169
 11
465.298523
 21
308.817169
  0
ARC
  8
LC-003-002-----0
 62
     1
  6
CONTINUOUS
 10
403.417419
 20
378.317169
 40
1.500000
 50
90.000003
 51
180.000009
  0
ARC
  8
LC-003-002-----0
 62
     1
  6
CONTINUOUS
 10
403.417419
 20
319.317169
 40
1.500000
 50
180.000009
 51
269.999997
  0
ARC
  8
LC-003-002-----0
 62
     1
  6
CONTINUOUS
 10
551.417419
 20
319.317169
 40
1.500000
 50
269.999997
 51
0.000000
  0
ARC
  8
LC-003-002-----0
 62
     1
  6
CONTINUOUS
 10
551.417419
 20
378.317169
 40
1.500000
 50
0.000000
 51
90.000003
  0
CIRCLE
  8
LC-003-002-----0
 62
     1
  6
CONTINUOUS
 10
690.522095
 20
348.817169
 40
48.000000
  0
ENDSEC
  0
EOF
