  0
SECTION
  2
HEADER
  9
$LIMMIN
 10
-193.406158
 20
405.247650
  9
$LIMMAX
 10
-60.430252
 20
564.315308
  9
$EXTMIN
 10
-193.406158
 20
405.247650
  9
$EXTMAX
 10
-60.430252
 20
564.315308
  0
ENDSEC
  0
SECTION
  2
TABLES
  0
TABLE
  2
LTYPE
 70
     3
  0
LTYPE
  2
CONTINUOUS
 70
    64
  3
Ausgezogene Linie
 72
    65
 73
     0
 40
0.0
  0
LTYPE
  2
DASHED
 70
    64
  3
__ __ __ __ __ __ __ __ __ __ __ __ __ __ __
 72
    65
 73
     2
 40
0.75
 49
0.5
 49
-0.25
  0
LTYPE
  2
DASHDOT
 70
    64
  3
__ . __ . __ . __ . __ . __ . __ . __ . __ . __
 72
    65
 73
     4
 40
1.0
 49
0.5
 49
-0.25
 49
0.0
 49
-0.25
  0
ENDTAB
  0
TABLE
  2
LAYER
 70
     5
  0
LAYER
  2
LC-INFO-1-1-MM-A0-0
 70
    64
 62
     7
  6
CONTINUOUS
  0
LAYER
  2
LC-003-002-----0
 70
    64
 62
     7
  6
CONTINUOUS
  0
LAYER
  2
LC-008-003-----0
 70
    64
 62
     7
  6
CONTINUOUS
  0
LAYER
  2
LC-004-006-----0
 70
    64
 62
     7
  6
CONTINUOUS
  0
LAYER
  2
LC-006-012-----0
 70
    64
 62
     7
  6
CONTINUOUS
  0
ENDTAB
  0
TABLE
  2
STYLE
 70
     1
  0
STYLE
  2
TXT8
 70
    64
 40
0.0
 41
1.0
 50
0.0
 71
     0
 42
3.500000
  3
TXT8
  4

  0
ENDTAB
  0
ENDSEC
  0
SECTION
  2
BLOCKS
  0
ENDSEC
  0
SECTION
  2
ENTITIES
  0
LINE
  8
LC-006-012-----0
 62
     2
  6
CONTINUOUS
 10
-62.923534
 20
539.809509
 11
-63.422108
 21
541.421387
  0
LINE
  8
LC-006-012-----0
 62
     2
  6
CONTINUOUS
 10
-63.422108
 20
541.421387
 11
-63.566093
 21
544.266479
  0
LINE
  8
LC-006-012-----0
 62
     2
  6
CONTINUOUS
 10
-63.566093
 20
544.266479
 11
-63.566093
 21
544.266479
  0
LINE
  8
LC-006-012-----0
 62
     2
  6
CONTINUOUS
 10
-63.566093
 20
544.266479
 11
-62.602257
 21
546.204285
  0
LINE
  8
LC-006-012-----0
 62
     2
  6
CONTINUOUS
 10
-62.602257
 20
546.204285
 11
-62.602257
 21
546.204285
  0
LINE
  8
LC-006-012-----0
 62
     2
  6
CONTINUOUS
 10
-62.602257
 20
546.204285
 11
-62.602257
 21
547.657593
  0
LINE
  8
LC-006-012-----0
 62
     2
  6
CONTINUOUS
 10
-62.602257
 20
547.657593
 11
-62.026474
 21
550.358337
  0
LINE
  8
LC-006-012-----0
 62
     2
  6
CONTINUOUS
 10
-62.026474
 20
550.358337
 11
-61.477783
 21
551.809509
  0
LINE
  8
LC-006-012-----0
 62
     2
  6
CONTINUOUS
 10
-121.338821
 20
539.809509
 11
-120.696373
 21
541.230164
  0
LINE
  8
LC-006-012-----0
 62
     2
  6
CONTINUOUS
 10
-120.696373
 20
541.230164
 11
-120.138161
 21
543.781982
  0
LINE
  8
LC-006-012-----0
 62
     2
  6
CONTINUOUS
 10
-120.138161
 20
543.781982
 11
-120.138161
 21
543.781982
  0
LINE
  8
LC-006-012-----0
 62
     2
  6
CONTINUOUS
 10
-120.138161
 20
543.781982
 11
-120.298798
 21
545.235352
  0
LINE
  8
LC-006-012-----0
 62
     2
  6
CONTINUOUS
 10
-120.298798
 20
545.235352
 11
-120.298798
 21
545.235352
  0
LINE
  8
LC-006-012-----0
 62
     2
  6
CONTINUOUS
 10
-120.298798
 20
545.235352
 11
-119.977516
 21
546.567566
  0
LINE
  8
LC-006-012-----0
 62
     2
  6
CONTINUOUS
 10
-119.977516
 20
546.567566
 11
-119.977516
 21
546.567566
  0
LINE
  8
LC-006-012-----0
 62
     2
  6
CONTINUOUS
 10
-119.977516
 20
546.567566
 11
-122.065834
 21
547.052063
  0
LINE
  8
LC-006-012-----0
 62
     2
  6
CONTINUOUS
 10
-122.065834
 20
547.052063
 11
-121.595047
 21
548.718018
  0
LINE
  8
LC-006-012-----0
 62
     2
  6
CONTINUOUS
 10
-121.595047
 20
548.718018
 11
-121.262634
 21
551.232056
  0
LINE
  8
LC-006-012-----0
 62
     2
  6
CONTINUOUS
 10
-121.262634
 20
551.232056
 11
-121.262634
 21
551.232056
  0
LINE
  8
LC-006-012-----0
 62
     2
  6
CONTINUOUS
 10
-121.262634
 20
551.232056
 11
-121.820740
 21
551.809509
  0
LINE
  8
LC-006-012-----0
 62
     2
  6
CONTINUOUS
 10
-165.111603
 20
471.567688
 11
-166.723480
 21
471.069122
  0
LINE
  8
LC-006-012-----0
 62
     2
  6
CONTINUOUS
 10
-166.723480
 20
471.069122
 11
-169.568558
 21
470.925110
  0
LINE
  8
LC-006-012-----0
 62
     2
  6
CONTINUOUS
 10
-169.568558
 20
470.925110
 11
-169.568558
 21
470.925110
  0
LINE
  8
LC-006-012-----0
 62
     2
  6
CONTINUOUS
 10
-169.570007
 20
470.929993
 11
-171.509995
 21
471.890015
  0
LINE
  8
LC-006-012-----0
 62
     2
  6
CONTINUOUS
 10
-171.506363
 20
471.888947
 11
-171.506363
 21
471.888947
  0
LINE
  8
LC-006-012-----0
 62
     2
  6
CONTINUOUS
 10
-171.506363
 20
471.888947
 11
-172.959702
 21
471.888947
  0
LINE
  8
LC-006-012-----0
 62
     2
  6
CONTINUOUS
 10
-172.959702
 20
471.888947
 11
-175.660400
 21
472.464752
  0
LINE
  8
LC-006-012-----0
 62
     2
  6
CONTINUOUS
 10
-175.660400
 20
472.464752
 11
-177.111603
 21
473.013428
  0
LINE
  8
LC-006-012-----0
 62
     2
  6
CONTINUOUS
 10
-165.111603
 20
408.152405
 11
-166.532288
 21
408.794830
  0
LINE
  8
LC-006-012-----0
 62
     2
  6
CONTINUOUS
 10
-166.532288
 20
408.794830
 11
-169.084106
 21
409.353058
  0
LINE
  8
LC-006-012-----0
 62
     2
  6
CONTINUOUS
 10
-169.084106
 20
409.353058
 11
-169.084106
 21
409.353058
  0
LINE
  8
LC-006-012-----0
 62
     2
  6
CONTINUOUS
 10
-169.084106
 20
409.353058
 11
-170.537460
 21
409.192413
  0
LINE
  8
LC-006-012-----0
 62
     2
  6
CONTINUOUS
 10
-170.537460
 20
409.192413
 11
-170.537460
 21
409.192413
  0
LINE
  8
LC-006-012-----0
 62
     2
  6
CONTINUOUS
 10
-170.537460
 20
409.192413
 11
-171.869690
 21
409.513702
  0
LINE
  8
LC-006-012-----0
 62
     2
  6
CONTINUOUS
 10
-171.869690
 20
409.513702
 11
-171.869690
 21
409.513702
  0
LINE
  8
LC-006-012-----0
 62
     2
  6
CONTINUOUS
 10
-171.869690
 20
409.513702
 11
-172.354141
 21
407.425385
  0
LINE
  8
LC-006-012-----0
 62
     2
  6
CONTINUOUS
 10
-172.354141
 20
407.425385
 11
-174.020096
 21
407.896179
  0
LINE
  8
LC-006-012-----0
 62
     2
  6
CONTINUOUS
 10
-174.020096
 20
407.896179
 11
-176.534164
 21
408.228577
  0
LINE
  8
LC-006-012-----0
 62
     2
  6
CONTINUOUS
 10
-176.534164
 20
408.228577
 11
-176.534164
 21
408.228577
  0
LINE
  8
LC-006-012-----0
 62
     2
  6
CONTINUOUS
 10
-176.534164
 20
408.228577
 11
-177.111603
 21
407.670471
  0
LINE
  8
LC-003-002-----0
 62
     1
  6
CONTINUOUS
 10
-192.111603
 20
557.809509
 11
-192.111603
 21
527.809509
  0
LINE
  8
LC-003-002-----0
 62
     1
  6
CONTINUOUS
 10
-192.110001
 20
527.809998
 11
-150.110001
 21
527.809998
  0
LINE
  8
LC-003-002-----0
 62
     1
  6
CONTINUOUS
 10
-150.111603
 20
557.809509
 11
-150.111603
 21
527.809509
  0
LINE
  8
LC-003-002-----0
 62
     1
  6
CONTINUOUS
 10
-155.111603
 20
562.809509
 11
-187.111603
 21
562.809509
  0
LINE
  8
LC-008-003-----0
 62
     2
  6
DASHDOT
 10
-183.514084
 20
545.809509
 11
-158.395187
 21
545.809509
  0
LINE
  8
LC-008-003-----0
 62
     2
  6
DASHDOT
 10
-171.111603
 20
557.650330
 11
-171.111603
 21
533.374268
  0
CIRCLE
  8
LC-003-002-----0
 62
     1
  6
CONTINUOUS
 10
-171.111603
 20
545.809509
 40
6.000000
  0
CIRCLE
  8
LC-003-002-----0
 62
     1
  6
CONTINUOUS
 10
-171.111603
 20
545.809509
 40
11.000000
  0
LINE
  8
LC-003-002-----0
 62
     1
  6
CONTINUOUS
 10
-187.111603
 20
562.809509
 11
-192.111603
 21
557.809509
  0
LINE
  8
LC-003-002-----0
 62
     1
  6
CONTINUOUS
 10
-155.111603
 20
562.809509
 11
-150.111603
 21
557.809509
  0
LINE
  8
LC-008-003-----0
 62
     2
  6
DASHDOT
 10
-187.111603
 20
563.510071
 11
-187.111603
 21
526.312134
  0
LINE
  8
LC-004-006-----0
 62
     2
  6
DASHED
 10
-157.261597
 20
558.809509
 11
-157.261597
 21
527.809509
  0
LINE
  8
LC-004-006-----0
 62
     2
  6
DASHED
 10
-184.961594
 20
558.809509
 11
-184.961594
 21
527.809509
  0
LINE
  8
LC-004-006-----0
 62
     2
  6
DASHED
 10
-189.261597
 20
558.809509
 11
-189.261597
 21
527.809509
  0
LINE
  8
LC-004-006-----0
 62
     2
  6
DASHED
 10
-152.961594
 20
558.809509
 11
-152.961594
 21
527.809509
  0
LINE
  8
LC-008-003-----0
 62
     2
  6
DASHDOT
 10
-155.111603
 20
563.510071
 11
-155.111603
 21
526.312134
  0
LINE
  8
LC-004-006-----0
 62
     2
  6
DASHED
 10
-189.611603
 20
538.809509
 11
-184.611603
 21
538.809509
  0
LINE
  8
LC-004-006-----0
 62
     2
  6
DASHED
 10
-184.611603
 20
538.809509
 11
-184.611603
 21
527.809509
  0
LINE
  8
LC-004-006-----0
 62
     2
  6
DASHED
 10
-189.611603
 20
538.809509
 11
-189.611603
 21
527.809509
  0
LINE
  8
LC-003-002-----0
 62
     1
  6
CONTINUOUS
 10
-155.111603
 20
425.302032
 11
-150.111603
 21
425.302032
  0
LINE
  8
LC-004-006-----0
 62
     2
  6
DASHED
 10
-182.111603
 20
562.809509
 11
-182.111603
 21
558.809509
  0
LINE
  8
LC-004-006-----0
 62
     2
  6
DASHED
 10
-191.111603
 20
558.809509
 11
-182.111603
 21
558.809509
  0
LINE
  8
LC-004-006-----0
 62
     2
  6
DASHED
 10
-152.611603
 20
538.809509
 11
-157.611603
 21
538.809509
  0
LINE
  8
LC-004-006-----0
 62
     2
  6
DASHED
 10
-157.611603
 20
538.809509
 11
-157.611603
 21
527.809509
  0
LINE
  8
LC-004-006-----0
 62
     2
  6
DASHED
 10
-152.611603
 20
538.809509
 11
-152.611603
 21
527.809509
  0
LINE
  8
LC-008-003-----0
 62
     2
  6
DASHDOT
 10
-171.111603
 20
474.313019
 11
-171.111603
 21
405.247650
  0
LINE
  8
LC-003-002-----0
 62
     1
  6
CONTINUOUS
 10
-192.111603
 20
460.302032
 11
-150.111603
 21
460.302032
  0
LINE
  8
LC-003-002-----0
 62
     1
  6
CONTINUOUS
 10
-192.111603
 20
460.302032
 11
-192.111603
 21
421.302032
  0
LINE
  8
LC-003-002-----0
 62
     1
  6
CONTINUOUS
 10
-192.111603
 20
421.302032
 11
-150.111603
 21
421.302032
  0
LINE
  8
LC-008-003-----0
 62
     2
  6
DASHDOT
 10
-155.111603
 20
456.829651
 11
-155.111603
 21
447.755951
  0
LINE
  8
LC-003-002-----0
 62
     1
  6
CONTINUOUS
 10
-150.111603
 20
460.302032
 11
-150.111603
 21
421.302032
  0
LINE
  8
LC-008-003-----0
 62
     2
  6
DASHDOT
 10
-161.027954
 20
452.302032
 11
-148.817047
 21
452.302032
  0
LINE
  8
LC-008-003-----0
 62
     2
  6
DASHDOT
 10
-161.027954
 20
429.302032
 11
-148.817047
 21
429.302032
  0
CIRCLE
  8
LC-003-002-----0
 62
     1
  6
CONTINUOUS
 10
-155.111603
 20
452.302032
 40
2.150000
  0
CIRCLE
  8
LC-003-002-----0
 62
     1
  6
CONTINUOUS
 10
-155.111603
 20
429.302032
 40
2.150000
  0
LINE
  8
LC-003-002-----0
 62
     1
  6
CONTINUOUS
 10
-155.111603
 20
433.302032
 11
-150.111603
 21
433.302032
  0
LINE
  8
LC-004-006-----0
 62
     2
  6
DASHED
 10
-160.111603
 20
562.809509
 11
-160.111603
 21
558.809509
  0
ARC
  8
LC-003-002-----0
 62
     1
  6
CONTINUOUS
 10
-155.111603
 20
429.302032
 40
4.000000
 50
90.000003
 51
269.999997
  0
LINE
  8
LC-008-003-----0
 62
     2
  6
DASHDOT
 10
-155.111603
 20
433.829651
 11
-155.111603
 21
424.755951
  0
ARC
  8
LC-003-002-----0
 62
     1
  6
CONTINUOUS
 10
-187.111603
 20
452.302032
 40
4.000000
 50
269.999997
 51
90.000003
  0
LINE
  8
LC-008-003-----0
 62
     2
  6
DASHDOT
 10
-187.111603
 20
456.829651
 11
-187.111603
 21
447.755951
  0
LINE
  8
LC-003-002-----0
 62
     1
  6
CONTINUOUS
 10
-187.111603
 20
456.302032
 11
-192.111603
 21
456.302032
  0
LINE
  8
LC-003-002-----0
 62
     1
  6
CONTINUOUS
 10
-187.111603
 20
448.302032
 11
-192.111603
 21
448.302032
  0
LINE
  8
LC-003-002-----0
 62
     1
  6
CONTINUOUS
 10
-187.111603
 20
433.302032
 11
-192.111603
 21
433.302032
  0
LINE
  8
LC-008-003-----0
 62
     2
  6
DASHDOT
 10
-181.195251
 20
452.302032
 11
-193.406158
 21
452.302032
  0
LINE
  8
LC-008-003-----0
 62
     2
  6
DASHDOT
 10
-181.195251
 20
429.302032
 11
-193.406158
 21
429.302032
  0
ARC
  8
LC-006-012-----0
 62
     2
  6
CONTINUOUS
 10
-187.111603
 20
452.302032
 40
2.500000
 50
81.298622
 51
8.952195
  0
CIRCLE
  8
LC-003-002-----0
 62
     1
  6
CONTINUOUS
 10
-187.111603
 20
429.302032
 40
2.150000
  0
LINE
  8
LC-003-002-----0
 62
     1
  6
CONTINUOUS
 10
-187.111603
 20
425.302032
 11
-192.111603
 21
425.302032
  0
LINE
  8
LC-008-003-----0
 62
     2
  6
DASHDOT
 10
-187.111603
 20
433.829651
 11
-187.111603
 21
424.755951
  0
ARC
  8
LC-003-002-----0
 62
     1
  6
CONTINUOUS
 10
-187.111603
 20
429.302032
 40
4.000000
 50
269.999997
 51
90.000003
  0
LINE
  8
LC-004-006-----0
 62
     2
  6
DASHED
 10
-160.111603
 20
460.302032
 11
-160.111603
 21
421.302032
  0
LINE
  8
LC-004-006-----0
 62
     2
  6
DASHED
 10
-182.111603
 20
460.302032
 11
-182.111603
 21
421.302032
  0
LINE
  8
LC-003-002-----0
 62
     1
  6
CONTINUOUS
 10
-187.111603
 20
460.302032
 11
-187.111603
 21
456.302032
  0
LINE
  8
LC-003-002-----0
 62
     1
  6
CONTINUOUS
 10
-187.111603
 20
448.302032
 11
-187.111603
 21
433.302032
  0
LINE
  8
LC-003-002-----0
 62
     1
  6
CONTINUOUS
 10
-187.111603
 20
425.302032
 11
-187.111603
 21
421.302032
  0
LINE
  8
LC-003-002-----0
 62
     1
  6
CONTINUOUS
 10
-155.111603
 20
460.302032
 11
-155.111603
 21
456.302032
  0
LINE
  8
LC-003-002-----0
 62
     1
  6
CONTINUOUS
 10
-155.111603
 20
448.302032
 11
-155.111603
 21
433.302032
  0
LINE
  8
LC-003-002-----0
 62
     1
  6
CONTINUOUS
 10
-155.111603
 20
425.302032
 11
-155.111603
 21
421.302032
  0
LINE
  8
LC-004-006-----0
 62
     2
  6
DASHED
 10
-165.111603
 20
460.302032
 11
-165.111603
 21
421.302032
  0
LINE
  8
LC-004-006-----0
 62
     2
  6
DASHED
 10
-177.111603
 20
460.302032
 11
-177.111603
 21
421.302032
  0
LINE
  8
LC-003-002-----0
 62
     1
  6
CONTINUOUS
 10
-165.111603
 20
460.302032
 11
-165.111603
 21
471.567688
  0
LINE
  8
LC-003-002-----0
 62
     1
  6
CONTINUOUS
 10
-177.111603
 20
460.302032
 11
-177.111603
 21
473.013428
  0
LINE
  8
LC-003-002-----0
 62
     1
  6
CONTINUOUS
 10
-165.111603
 20
421.302032
 11
-165.111603
 21
408.152405
  0
LINE
  8
LC-003-002-----0
 62
     1
  6
CONTINUOUS
 10
-177.111603
 20
421.302032
 11
-177.111603
 21
407.670471
  0
LINE
  8
LC-003-002-----0
 62
     1
  6
CONTINUOUS
 10
-113.189171
 20
557.809509
 11
-74.189171
 21
557.809509
  0
LINE
  8
LC-004-006-----0
 62
     2
  6
DASHED
 10
-151.111603
 20
558.809509
 11
-160.111603
 21
558.809509
  0
LINE
  8
LC-003-002-----0
 62
     1
  6
CONTINUOUS
 10
-155.111603
 20
448.302032
 11
-150.111603
 21
448.302032
  0
LINE
  8
LC-003-002-----0
 62
     1
  6
CONTINUOUS
 10
-155.111603
 20
456.302032
 11
-150.111603
 21
456.302032
  0
ARC
  8
LC-003-002-----0
 62
     1
  6
CONTINUOUS
 10
-155.111603
 20
452.302032
 40
4.000000
 50
90.000003
 51
269.999997
  0
LINE
  8
LC-008-003-----0
 62
     2
  6
DASHDOT
 10
-124.328476
 20
545.809509
 11
-60.430252
 21
545.809509
  0
LINE
  8
LC-003-002-----0
 62
     1
  6
CONTINUOUS
 10
-113.189171
 20
527.809509
 11
-74.189171
 21
527.809509
  0
LINE
  8
LC-003-002-----0
 62
     1
  6
CONTINUOUS
 10
-113.189171
 20
562.809509
 11
-74.189171
 21
562.809509
  0
LINE
  8
LC-003-002-----0
 62
     1
  6
CONTINUOUS
 10
-113.189171
 20
527.809509
 11
-113.189171
 21
562.809509
  0
LINE
  8
LC-003-002-----0
 62
     1
  6
CONTINUOUS
 10
-74.189171
 20
527.809509
 11
-74.189171
 21
562.809509
  0
LINE
  8
LC-004-006-----0
 62
     2
  6
DASHED
 10
-74.189171
 20
539.809509
 11
-113.189171
 21
539.809509
  0
LINE
  8
LC-004-006-----0
 62
     2
  6
DASHED
 10
-74.189171
 20
551.809509
 11
-113.189171
 21
551.809509
  0
LINE
  8
LC-003-002-----0
 62
     1
  6
CONTINUOUS
 10
-74.189171
 20
539.809509
 11
-62.923534
 21
539.809509
  0
LINE
  8
LC-003-002-----0
 62
     1
  6
CONTINUOUS
 10
-74.189171
 20
551.809509
 11
-61.477783
 21
551.809509
  0
LINE
  8
LC-003-002-----0
 62
     1
  6
CONTINUOUS
 10
-113.189171
 20
539.809509
 11
-121.338821
 21
539.809509
  0
LINE
  8
LC-003-002-----0
 62
     1
  6
CONTINUOUS
 10
-113.189171
 20
551.809509
 11
-121.820740
 21
551.809509
  0
LINE
  8
LC-004-006-----0
 62
     2
  6
DASHED
 10
-113.189171
 20
556.809509
 11
-74.189171
 21
556.809509
  0
LINE
  8
LC-004-006-----0
 62
     2
  6
DASHED
 10
-113.189171
 20
534.809509
 11
-74.189171
 21
534.809509
  0
LINE
  8
LC-008-003-----0
 62
     2
  6
DASHDOT
 10
-105.189171
 20
525.514160
 11
-105.189171
 21
564.315308
  0
LINE
  8
LC-008-003-----0
 62
     2
  6
DASHDOT
 10
-82.189171
 20
525.514160
 11
-82.189171
 21
564.315308
  0
LINE
  8
LC-004-006-----0
 62
     2
  6
DASHED
 10
-107.689171
 20
538.809509
 11
-102.689171
 21
538.809509
  0
LINE
  8
LC-004-006-----0
 62
     2
  6
DASHED
 10
-102.689171
 20
538.809509
 11
-102.689171
 21
527.809509
  0
LINE
  8
LC-004-006-----0
 62
     2
  6
DASHED
 10
-107.689171
 20
538.809509
 11
-107.689171
 21
527.809509
  0
LINE
  8
LC-004-006-----0
 62
     2
  6
DASHED
 10
-107.339172
 20
558.809509
 11
-107.339172
 21
527.809509
  0
LINE
  8
LC-004-006-----0
 62
     2
  6
DASHED
 10
-103.039169
 20
558.809509
 11
-103.039169
 21
527.809509
  0
LINE
  8
LC-003-002-----0
 62
     1
  6
CONTINUOUS
 10
-100.189171
 20
562.809509
 11
-100.189171
 21
558.809509
  0
LINE
  8
LC-003-002-----0
 62
     1
  6
CONTINUOUS
 10
-110.189171
 20
558.809509
 11
-100.189171
 21
558.809509
  0
LINE
  8
LC-003-002-----0
 62
     1
  6
CONTINUOUS
 10
-110.189171
 20
562.809509
 11
-110.189171
 21
558.809509
  0
LINE
  8
LC-004-006-----0
 62
     2
  6
DASHED
 10
-84.689171
 20
538.809509
 11
-79.689171
 21
538.809509
  0
LINE
  8
LC-004-006-----0
 62
     2
  6
DASHED
 10
-79.689171
 20
538.809509
 11
-79.689171
 21
527.809509
  0
LINE
  8
LC-004-006-----0
 62
     2
  6
DASHED
 10
-84.689171
 20
538.809509
 11
-84.689171
 21
527.809509
  0
LINE
  8
LC-004-006-----0
 62
     2
  6
DASHED
 10
-84.339172
 20
558.809509
 11
-84.339172
 21
527.809509
  0
LINE
  8
LC-004-006-----0
 62
     2
  6
DASHED
 10
-80.039169
 20
558.809509
 11
-80.039169
 21
527.809509
  0
LINE
  8
LC-003-002-----0
 62
     1
  6
CONTINUOUS
 10
-77.189171
 20
562.809509
 11
-77.189171
 21
558.809509
  0
LINE
  8
LC-003-002-----0
 62
     1
  6
CONTINUOUS
 10
-87.189171
 20
558.809509
 11
-77.189171
 21
558.809509
  0
LINE
  8
LC-003-002-----0
 62
     1
  6
CONTINUOUS
 10
-87.189171
 20
562.809509
 11
-87.189171
 21
558.809509
  0
ARC
  8
LC-006-012-----0
 62
     2
  6
CONTINUOUS
 10
-155.111603
 20
452.302032
 40
2.500000
 50
171.047799
 51
98.701377
  0
CIRCLE
  8
LC-003-002-----0
 62
     1
  6
CONTINUOUS
 10
-187.111603
 20
452.302032
 40
2.150000
  0
ARC
  8
LC-006-012-----0
 62
     2
  6
CONTINUOUS
 10
-155.111603
 20
429.302032
 40
2.500000
 50
261.298623
 51
188.952201
  0
ARC
  8
LC-006-012-----0
 62
     2
  6
CONTINUOUS
 10
-187.111603
 20
429.302032
 40
2.500000
 50
351.047805
 51
278.701378
  0
CIRCLE
  8
LC-003-002-----0
 62
     1
  6
CONTINUOUS
 10
-171.111603
 20
545.809509
 40
6.500000
  0
LINE
  8
LC-003-002-----0
 62
     1
  6
CONTINUOUS
 10
-192.111603
 20
562.809509
 11
-192.111603
 21
562.809509
  0
ENDSEC
  0
EOF
