  0
SECTION
  2
HEADER
  9
$LIMMIN
 10
-193.406158
 20
124.333145
  9
$LIMMAX
 10
-40.855350
 20
294.566162
  9
$EXTMIN
 10
-193.406158
 20
124.333145
  9
$EXTMAX
 10
-40.855350
 20
294.566162
  0
ENDSEC
  0
SECTION
  2
TABLES
  0
TABLE
  2
LTYPE
 70
     3
  0
LTYPE
  2
CONTINUOUS
 70
    64
  3
Ausgezogene Linie
 72
    65
 73
     0
 40
0.0
  0
LTYPE
  2
DASHED
 70
    64
  3
__ __ __ __ __ __ __ __ __ __ __ __ __ __ __
 72
    65
 73
     2
 40
0.75
 49
0.5
 49
-0.25
  0
LTYPE
  2
DASHDOT
 70
    64
  3
__ . __ . __ . __ . __ . __ . __ . __ . __ . __
 72
    65
 73
     4
 40
1.0
 49
0.5
 49
-0.25
 49
0.0
 49
-0.25
  0
ENDTAB
  0
TABLE
  2
LAYER
 70
     5
  0
LAYER
  2
LC-INFO-1-1-MM-A0-0
 70
    64
 62
     7
  6
CONTINUOUS
  0
LAYER
  2
LC-003-002-----0
 70
    64
 62
     7
  6
CONTINUOUS
  0
LAYER
  2
LC-008-003-----0
 70
    64
 62
     7
  6
CONTINUOUS
  0
LAYER
  2
LC-004-006-----0
 70
    64
 62
     7
  6
CONTINUOUS
  0
LAYER
  2
LC-006-012-----0
 70
    64
 62
     7
  6
CONTINUOUS
  0
ENDTAB
  0
TABLE
  2
STYLE
 70
     1
  0
STYLE
  2
TXT8
 70
    64
 40
0.0
 41
1.0
 50
0.0
 71
     0
 42
3.500000
  3
TXT8
  4

  0
ENDTAB
  0
ENDSEC
  0
SECTION
  2
BLOCKS
  0
ENDSEC
  0
SECTION
  2
ENTITIES
  0
LINE
  8
LC-006-012-----0
 62
     2
  6
CONTINUOUS
 10
-106.838821
 20
265.865570
 11
-106.455864
 21
266.933624
  0
LINE
  8
LC-006-012-----0
 62
     2
  6
CONTINUOUS
 10
-106.455864
 20
266.933624
 11
-105.806099
 21
269.328918
  0
LINE
  8
LC-006-012-----0
 62
     2
  6
CONTINUOUS
 10
-105.806099
 20
269.328918
 11
-105.638161
 21
271.838074
  0
LINE
  8
LC-006-012-----0
 62
     2
  6
CONTINUOUS
 10
-105.638161
 20
271.838074
 11
-105.638161
 21
271.838074
  0
LINE
  8
LC-006-012-----0
 62
     2
  6
CONTINUOUS
 10
-105.638161
 20
271.838074
 11
-105.638161
 21
271.838074
  0
LINE
  8
LC-006-012-----0
 62
     2
  6
CONTINUOUS
 10
-105.638161
 20
271.838074
 11
-105.798798
 21
273.291412
  0
LINE
  8
LC-006-012-----0
 62
     2
  6
CONTINUOUS
 10
-105.798798
 20
273.291412
 11
-105.798798
 21
273.291412
  0
LINE
  8
LC-006-012-----0
 62
     2
  6
CONTINUOUS
 10
-105.798798
 20
273.291412
 11
-105.477516
 21
274.623657
  0
LINE
  8
LC-006-012-----0
 62
     2
  6
CONTINUOUS
 10
-105.477516
 20
274.623657
 11
-105.477516
 21
274.623657
  0
LINE
  8
LC-006-012-----0
 62
     2
  6
CONTINUOUS
 10
-105.477516
 20
274.623657
 11
-107.565834
 21
275.108124
  0
LINE
  8
LC-006-012-----0
 62
     2
  6
CONTINUOUS
 10
-107.565834
 20
275.108124
 11
-107.732819
 21
276.425903
  0
LINE
  8
LC-006-012-----0
 62
     2
  6
CONTINUOUS
 10
-107.732819
 20
276.425903
 11
-106.567253
 21
278.774323
  0
LINE
  8
LC-006-012-----0
 62
     2
  6
CONTINUOUS
 10
-106.567253
 20
278.774323
 11
-106.762634
 21
281.288147
  0
LINE
  8
LC-006-012-----0
 62
     2
  6
CONTINUOUS
 10
-106.762634
 20
281.288147
 11
-106.762634
 21
281.288147
  0
LINE
  8
LC-006-012-----0
 62
     2
  6
CONTINUOUS
 10
-106.762634
 20
281.288147
 11
-107.320740
 21
281.865570
  0
LINE
  8
LC-006-012-----0
 62
     2
  6
CONTINUOUS
 10
-45.423534
 20
265.865570
 11
-45.777149
 21
267.035889
  0
LINE
  8
LC-006-012-----0
 62
     2
  6
CONTINUOUS
 10
-45.777149
 20
267.035889
 11
-46.273556
 21
269.641052
  0
LINE
  8
LC-006-012-----0
 62
     2
  6
CONTINUOUS
 10
-46.273556
 20
269.641052
 11
-46.066093
 21
272.322540
  0
LINE
  8
LC-006-012-----0
 62
     2
  6
CONTINUOUS
 10
-46.066093
 20
272.322540
 11
-46.066093
 21
272.322540
  0
LINE
  8
LC-006-012-----0
 62
     2
  6
CONTINUOUS
 10
-46.066093
 20
272.322540
 11
-46.066093
 21
272.322540
  0
LINE
  8
LC-006-012-----0
 62
     2
  6
CONTINUOUS
 10
-46.066093
 20
272.322540
 11
-45.102257
 21
274.260315
  0
LINE
  8
LC-006-012-----0
 62
     2
  6
CONTINUOUS
 10
-45.102257
 20
274.260315
 11
-45.102257
 21
274.260315
  0
LINE
  8
LC-006-012-----0
 62
     2
  6
CONTINUOUS
 10
-45.102257
 20
274.260315
 11
-45.102257
 21
275.713684
  0
LINE
  8
LC-006-012-----0
 62
     2
  6
CONTINUOUS
 10
-45.102257
 20
275.713684
 11
-44.838470
 21
278.360748
  0
LINE
  8
LC-006-012-----0
 62
     2
  6
CONTINUOUS
 10
-44.838470
 20
278.360748
 11
-44.283184
 21
280.796722
  0
LINE
  8
LC-006-012-----0
 62
     2
  6
CONTINUOUS
 10
-44.283184
 20
280.796722
 11
-43.977783
 21
281.865570
  0
LINE
  8
LC-006-012-----0
 62
     2
  6
CONTINUOUS
 10
-43.977783
 20
281.865570
 11
-43.977783
 21
281.865570
  0
LINE
  8
LC-006-012-----0
 62
     2
  6
CONTINUOUS
 10
-158.111603
 20
193.653168
 11
-159.281906
 21
193.299561
  0
LINE
  8
LC-006-012-----0
 62
     2
  6
CONTINUOUS
 10
-159.281906
 20
193.299561
 11
-161.887100
 21
192.803162
  0
LINE
  8
LC-006-012-----0
 62
     2
  6
CONTINUOUS
 10
-161.887100
 20
192.803162
 11
-164.568558
 21
193.010620
  0
LINE
  8
LC-006-012-----0
 62
     2
  6
CONTINUOUS
 10
-164.568558
 20
193.010620
 11
-164.568558
 21
193.010620
  0
LINE
  8
LC-006-012-----0
 62
     2
  6
CONTINUOUS
 10
-164.568558
 20
193.010620
 11
-166.506363
 21
193.974457
  0
LINE
  8
LC-006-012-----0
 62
     2
  6
CONTINUOUS
 10
-166.506363
 20
193.974457
 11
-166.506363
 21
193.974457
  0
LINE
  8
LC-006-012-----0
 62
     2
  6
CONTINUOUS
 10
-166.506363
 20
193.974457
 11
-167.959702
 21
193.974457
  0
LINE
  8
LC-006-012-----0
 62
     2
  6
CONTINUOUS
 10
-167.959702
 20
193.974457
 11
-170.606796
 21
194.238235
  0
LINE
  8
LC-006-012-----0
 62
     2
  6
CONTINUOUS
 10
-170.606796
 20
194.238235
 11
-173.042740
 21
194.793533
  0
LINE
  8
LC-006-012-----0
 62
     2
  6
CONTINUOUS
 10
-173.042740
 20
194.793533
 11
-174.111603
 21
195.098923
  0
LINE
  8
LC-006-012-----0
 62
     2
  6
CONTINUOUS
 10
-158.111603
 20
127.237892
 11
-159.179657
 21
127.620842
  0
LINE
  8
LC-006-012-----0
 62
     2
  6
CONTINUOUS
 10
-159.179657
 20
127.620842
 11
-161.574936
 21
128.270615
  0
LINE
  8
LC-006-012-----0
 62
     2
  6
CONTINUOUS
 10
-161.574936
 20
128.270615
 11
-164.084106
 21
128.438553
  0
LINE
  8
LC-006-012-----0
 62
     2
  6
CONTINUOUS
 10
-164.084106
 20
128.438553
 11
-164.084106
 21
128.438553
  0
LINE
  8
LC-006-012-----0
 62
     2
  6
CONTINUOUS
 10
-164.084106
 20
128.438553
 11
-164.084106
 21
128.438553
  0
LINE
  8
LC-006-012-----0
 62
     2
  6
CONTINUOUS
 10
-164.084106
 20
128.438553
 11
-165.537460
 21
128.277908
  0
LINE
  8
LC-006-012-----0
 62
     2
  6
CONTINUOUS
 10
-165.537460
 20
128.277908
 11
-165.537460
 21
128.277908
  0
LINE
  8
LC-006-012-----0
 62
     2
  6
CONTINUOUS
 10
-165.537460
 20
128.277908
 11
-166.869690
 21
128.599197
  0
LINE
  8
LC-006-012-----0
 62
     2
  6
CONTINUOUS
 10
-166.869690
 20
128.599197
 11
-166.869690
 21
128.599197
  0
LINE
  8
LC-006-012-----0
 62
     2
  6
CONTINUOUS
 10
-166.869690
 20
128.599197
 11
-167.354141
 21
126.510872
  0
LINE
  8
LC-006-012-----0
 62
     2
  6
CONTINUOUS
 10
-167.354141
 20
126.510880
 11
-168.671936
 21
126.343895
  0
LINE
  8
LC-006-012-----0
 62
     2
  6
CONTINUOUS
 10
-168.671936
 20
126.343895
 11
-171.020340
 21
127.509460
  0
LINE
  8
LC-006-012-----0
 62
     2
  6
CONTINUOUS
 10
-171.020340
 20
127.509460
 11
-173.534164
 21
127.314079
  0
LINE
  8
LC-006-012-----0
 62
     2
  6
CONTINUOUS
 10
-173.534164
 20
127.314079
 11
-173.534164
 21
127.314079
  0
LINE
  8
LC-006-012-----0
 62
     2
  6
CONTINUOUS
 10
-173.534164
 20
127.314079
 11
-174.111603
 21
126.755974
  0
LINE
  8
LC-004-006-----0
 62
     2
  6
DASHED
 10
-191.111603
 20
288.865570
 11
-180.611603
 21
288.865570
  0
LINE
  8
LC-003-002-----0
 62
     1
  6
CONTINUOUS
 10
-192.111603
 20
251.865570
 11
-192.111603
 21
287.865570
  0
LINE
  8
LC-003-002-----0
 62
     1
  6
CONTINUOUS
 10
-192.111603
 20
251.865570
 11
-140.111603
 21
251.865570
  0
LINE
  8
LC-003-002-----0
 62
     1
  6
CONTINUOUS
 10
-140.111603
 20
287.865570
 11
-140.111603
 21
251.865570
  0
LINE
  8
LC-003-002-----0
 62
     1
  6
CONTINUOUS
 10
-186.111603
 20
293.865570
 11
-146.111603
 21
293.865570
  0
LINE
  8
LC-008-003-----0
 62
     2
  6
DASHDOT
 10
-181.009735
 20
273.865570
 11
-151.443268
 21
273.865570
  0
LINE
  8
LC-008-003-----0
 62
     2
  6
DASHDOT
 10
-166.111603
 20
288.181915
 11
-166.111603
 21
259.627930
  0
CIRCLE
  8
LC-003-002-----0
 62
     1
  6
CONTINUOUS
 10
-166.111603
 20
273.865570
 40
8.000000
  0
CIRCLE
  8
LC-003-002-----0
 62
     1
  6
CONTINUOUS
 10
-166.111603
 20
273.865570
 40
13.000000
  0
LINE
  8
LC-003-002-----0
 62
     1
  6
CONTINUOUS
 10
-192.111603
 20
287.865570
 11
-186.111603
 21
293.865570
  0
LINE
  8
LC-004-006-----0
 62
     2
  6
DASHED
 10
-188.761597
 20
288.865570
 11
-188.761597
 21
251.865570
  0
LINE
  8
LC-004-006-----0
 62
     2
  6
DASHED
 10
-143.461594
 20
288.865570
 11
-143.461594
 21
251.865570
  0
LINE
  8
LC-004-006-----0
 62
     2
  6
DASHED
 10
-183.461594
 20
288.865570
 11
-183.461594
 21
251.865570
  0
LINE
  8
LC-008-003-----0
 62
     2
  6
DASHDOT
 10
-186.111603
 20
294.566162
 11
-186.111603
 21
250.368164
  0
LINE
  8
LC-004-006-----0
 62
     2
  6
DASHED
 10
-148.761597
 20
288.865570
 11
-148.761597
 21
251.865570
  0
LINE
  8
LC-008-003-----0
 62
     2
  6
DASHDOT
 10
-146.111603
 20
294.566162
 11
-146.111603
 21
250.368164
  0
LINE
  8
LC-004-006-----0
 62
     2
  6
DASHED
 10
-183.111603
 20
264.865570
 11
-189.111603
 21
264.865570
  0
LINE
  8
LC-004-006-----0
 62
     2
  6
DASHED
 10
-189.111603
 20
264.865570
 11
-189.111603
 21
251.865570
  0
LINE
  8
LC-004-006-----0
 62
     2
  6
DASHED
 10
-183.111603
 20
264.865570
 11
-183.111603
 21
251.865570
  0
LINE
  8
LC-003-002-----0
 62
     1
  6
CONTINUOUS
 10
-146.111603
 20
293.865570
 11
-140.111603
 21
287.865570
  0
LINE
  8
LC-008-003-----0
 62
     2
  6
DASHDOT
 10
-186.111603
 20
180.689529
 11
-186.111603
 21
168.653931
  0
LINE
  8
LC-004-006-----0
 62
     2
  6
DASHED
 10
-149.111603
 20
264.865570
 11
-143.111603
 21
264.865570
  0
LINE
  8
LC-004-006-----0
 62
     2
  6
DASHED
 10
-143.111603
 20
264.865570
 11
-143.111603
 21
251.865570
  0
LINE
  8
LC-004-006-----0
 62
     2
  6
DASHED
 10
-149.111603
 20
264.865570
 11
-149.111603
 21
251.865570
  0
LINE
  8
LC-008-003-----0
 62
     2
  6
DASHDOT
 10
-166.111603
 20
195.996643
 11
-166.111603
 21
124.333145
  0
LINE
  8
LC-003-002-----0
 62
     1
  6
CONTINUOUS
 10
-192.111603
 20
182.887543
 11
-140.111603
 21
182.887543
  0
LINE
  8
LC-003-002-----0
 62
     1
  6
CONTINUOUS
 10
-192.111603
 20
182.887543
 11
-192.111603
 21
139.887543
  0
LINE
  8
LC-003-002-----0
 62
     1
  6
CONTINUOUS
 10
-192.111603
 20
139.887543
 11
-140.111603
 21
139.887543
  0
LINE
  8
LC-008-003-----0
 62
     2
  6
DASHDOT
 10
-146.111603
 20
180.689529
 11
-146.111603
 21
168.653931
  0
LINE
  8
LC-003-002-----0
 62
     1
  6
CONTINUOUS
 10
-140.111603
 20
182.887543
 11
-140.111603
 21
139.887543
  0
LINE
  8
LC-008-003-----0
 62
     2
  6
DASHDOT
 10
-152.027954
 20
174.387543
 11
-138.817047
 21
174.387543
  0
LINE
  8
LC-008-003-----0
 62
     2
  6
DASHDOT
 10
-152.027954
 20
148.387543
 11
-138.817047
 21
148.387543
  0
CIRCLE
  8
LC-003-002-----0
 62
     1
  6
CONTINUOUS
 10
-146.111603
 20
148.387543
 40
2.650000
  0
LINE
  8
LC-008-003-----0
 62
     2
  6
DASHDOT
 10
-180.195251
 20
174.387543
 11
-193.406158
 21
174.387543
  0
LINE
  8
LC-008-003-----0
 62
     2
  6
DASHDOT
 10
-146.111603
 20
154.326324
 11
-146.111603
 21
142.432327
  0
LINE
  8
LC-004-006-----0
 62
     2
  6
DASHED
 10
-180.611603
 20
288.865570
 11
-180.611603
 21
293.865570
  0
LINE
  8
LC-003-002-----0
 62
     1
  6
CONTINUOUS
 10
-146.111603
 20
143.387543
 11
-140.111603
 21
143.387543
  0
ARC
  8
LC-003-002-----0
 62
     1
  6
CONTINUOUS
 10
-146.111603
 20
174.387543
 40
5.000000
 50
90.000003
 51
269.999997
  0
LINE
  8
LC-008-003-----0
 62
     2
  6
DASHDOT
 10
-180.195251
 20
148.387543
 11
-193.406158
 21
148.387543
  0
LINE
  8
LC-003-002-----0
 62
     1
  6
CONTINUOUS
 10
-146.111603
 20
153.387543
 11
-140.111603
 21
153.387543
  0
ARC
  8
LC-003-002-----0
 62
     1
  6
CONTINUOUS
 10
-146.111603
 20
148.387543
 40
5.000000
 50
90.000003
 51
269.999997
  0
CIRCLE
  8
LC-003-002-----0
 62
     1
  6
CONTINUOUS
 10
-186.111603
 20
148.387543
 40
2.650000
  0
LINE
  8
LC-008-003-----0
 62
     2
  6
DASHDOT
 10
-186.111603
 20
154.326324
 11
-186.111603
 21
142.432327
  0
LINE
  8
LC-003-002-----0
 62
     1
  6
CONTINUOUS
 10
-186.111603
 20
143.387543
 11
-192.111603
 21
143.387543
  0
ARC
  8
LC-003-002-----0
 62
     1
  6
CONTINUOUS
 10
-186.111603
 20
174.387543
 40
5.000000
 50
269.999997
 51
90.000003
  0
LINE
  8
LC-003-002-----0
 62
     1
  6
CONTINUOUS
 10
-186.111603
 20
153.387543
 11
-192.111603
 21
153.387543
  0
ARC
  8
LC-003-002-----0
 62
     1
  6
CONTINUOUS
 10
-186.111603
 20
148.387543
 40
5.000000
 50
269.999997
 51
90.000003
  0
LINE
  8
LC-004-006-----0
 62
     2
  6
DASHED
 10
-182.111603
 20
182.887543
 11
-182.111603
 21
139.887543
  0
LINE
  8
LC-003-002-----0
 62
     1
  6
CONTINUOUS
 10
-99.189171
 20
287.865570
 11
-56.189171
 21
287.865570
  0
CIRCLE
  8
LC-003-002-----0
 62
     1
  6
CONTINUOUS
 10
-186.111603
 20
174.387543
 40
2.650000
  0
LINE
  8
LC-004-006-----0
 62
     2
  6
DASHED
 10
-150.111603
 20
182.887543
 11
-150.111603
 21
139.887543
  0
LINE
  8
LC-003-002-----0
 62
     1
  6
CONTINUOUS
 10
-186.111603
 20
179.387543
 11
-192.111603
 21
179.387543
  0
LINE
  8
LC-003-002-----0
 62
     1
  6
CONTINUOUS
 10
-186.111603
 20
169.387543
 11
-192.111603
 21
169.387543
  0
LINE
  8
LC-003-002-----0
 62
     1
  6
CONTINUOUS
 10
-186.111603
 20
182.887543
 11
-186.111603
 21
179.387543
  0
LINE
  8
LC-003-002-----0
 62
     1
  6
CONTINUOUS
 10
-186.111603
 20
169.387543
 11
-186.111603
 21
153.387543
  0
LINE
  8
LC-004-006-----0
 62
     2
  6
DASHED
 10
-158.111603
 20
182.887543
 11
-158.111603
 21
139.887543
  0
LINE
  8
LC-004-006-----0
 62
     2
  6
DASHED
 10
-174.111603
 20
182.887543
 11
-174.111603
 21
139.887543
  0
LINE
  8
LC-003-002-----0
 62
     1
  6
CONTINUOUS
 10
-158.111603
 20
182.887543
 11
-158.111603
 21
193.653168
  0
LINE
  8
LC-003-002-----0
 62
     1
  6
CONTINUOUS
 10
-174.111603
 20
182.887543
 11
-174.111603
 21
195.098923
  0
LINE
  8
LC-003-002-----0
 62
     1
  6
CONTINUOUS
 10
-158.111603
 20
139.887543
 11
-158.111603
 21
127.237892
  0
LINE
  8
LC-003-002-----0
 62
     1
  6
CONTINUOUS
 10
-174.111603
 20
139.887543
 11
-174.111603
 21
126.755974
  0
LINE
  8
LC-003-002-----0
 62
     1
  6
CONTINUOUS
 10
-99.189171
 20
251.865570
 11
-56.189171
 21
251.865570
  0
LINE
  8
LC-003-002-----0
 62
     1
  6
CONTINUOUS
 10
-99.189171
 20
293.865570
 11
-56.189171
 21
293.865570
  0
LINE
  8
LC-003-002-----0
 62
     1
  6
CONTINUOUS
 10
-186.111603
 20
143.387543
 11
-186.111603
 21
139.887543
  0
LINE
  8
LC-004-006-----0
 62
     2
  6
DASHED
 10
-141.111603
 20
288.865570
 11
-151.611603
 21
288.865570
  0
LINE
  8
LC-004-006-----0
 62
     2
  6
DASHED
 10
-151.611603
 20
288.865570
 11
-151.611603
 21
293.865570
  0
CIRCLE
  8
LC-003-002-----0
 62
     1
  6
CONTINUOUS
 10
-146.111603
 20
174.387543
 40
2.650000
  0
LINE
  8
LC-003-002-----0
 62
     1
  6
CONTINUOUS
 10
-146.111603
 20
169.387543
 11
-140.111603
 21
169.387543
  0
LINE
  8
LC-003-002-----0
 62
     1
  6
CONTINUOUS
 10
-146.111603
 20
179.387543
 11
-140.111603
 21
179.387543
  0
LINE
  8
LC-003-002-----0
 62
     1
  6
CONTINUOUS
 10
-146.111603
 20
182.887543
 11
-146.111603
 21
179.387543
  0
LINE
  8
LC-008-003-----0
 62
     2
  6
DASHDOT
 10
-110.648125
 20
273.865570
 11
-40.855350
 21
273.865570
  0
LINE
  8
LC-003-002-----0
 62
     1
  6
CONTINUOUS
 10
-99.189171
 20
293.865570
 11
-99.189171
 21
251.865570
  0
LINE
  8
LC-003-002-----0
 62
     1
  6
CONTINUOUS
 10
-56.189171
 20
293.865570
 11
-56.189171
 21
251.865570
  0
LINE
  8
LC-004-006-----0
 62
     2
  6
DASHED
 10
-56.189171
 20
265.865570
 11
-99.189171
 21
265.865570
  0
LINE
  8
LC-004-006-----0
 62
     2
  6
DASHED
 10
-56.189171
 20
281.865570
 11
-99.189171
 21
281.865570
  0
LINE
  8
LC-003-002-----0
 62
     1
  6
CONTINUOUS
 10
-56.189171
 20
265.865570
 11
-45.423534
 21
265.865570
  0
LINE
  8
LC-003-002-----0
 62
     1
  6
CONTINUOUS
 10
-56.189171
 20
281.865570
 11
-43.977783
 21
281.865570
  0
LINE
  8
LC-003-002-----0
 62
     1
  6
CONTINUOUS
 10
-99.189171
 20
265.865570
 11
-106.838821
 21
265.865570
  0
LINE
  8
LC-003-002-----0
 62
     1
  6
CONTINUOUS
 10
-99.189171
 20
281.865570
 11
-107.320740
 21
281.865570
  0
LINE
  8
LC-008-003-----0
 62
     2
  6
DASHDOT
 10
-64.689171
 20
294.566162
 11
-64.689171
 21
250.368164
  0
LINE
  8
LC-004-006-----0
 62
     2
  6
DASHED
 10
-93.339172
 20
288.865570
 11
-93.339172
 21
251.865570
  0
LINE
  8
LC-004-006-----0
 62
     2
  6
DASHED
 10
-88.039169
 20
288.865570
 11
-88.039169
 21
251.865570
  0
LINE
  8
LC-008-003-----0
 62
     2
  6
DASHDOT
 10
-90.689171
 20
294.566162
 11
-90.689171
 21
250.368164
  0
LINE
  8
LC-004-006-----0
 62
     2
  6
DASHED
 10
-87.689171
 20
264.865570
 11
-93.689171
 21
264.865570
  0
LINE
  8
LC-004-006-----0
 62
     2
  6
DASHED
 10
-93.689171
 20
264.865570
 11
-93.689171
 21
251.865570
  0
LINE
  8
LC-004-006-----0
 62
     2
  6
DASHED
 10
-87.689171
 20
264.865570
 11
-87.689171
 21
251.865570
  0
LINE
  8
LC-003-002-----0
 62
     1
  6
CONTINUOUS
 10
-146.111603
 20
169.387543
 11
-146.111603
 21
153.387543
  0
LINE
  8
LC-003-002-----0
 62
     1
  6
CONTINUOUS
 10
-96.189171
 20
288.865570
 11
-85.189171
 21
288.865570
  0
LINE
  8
LC-003-002-----0
 62
     1
  6
CONTINUOUS
 10
-85.189171
 20
288.865570
 11
-85.189171
 21
293.865570
  0
LINE
  8
LC-003-002-----0
 62
     1
  6
CONTINUOUS
 10
-146.111603
 20
143.387543
 11
-146.111603
 21
139.887543
  0
LINE
  8
LC-003-002-----0
 62
     1
  6
CONTINUOUS
 10
-96.189171
 20
288.865570
 11
-96.189171
 21
293.865570
  0
LINE
  8
LC-004-006-----0
 62
     2
  6
DASHED
 10
-67.339172
 20
288.865570
 11
-67.339172
 21
251.865570
  0
LINE
  8
LC-004-006-----0
 62
     2
  6
DASHED
 10
-62.039169
 20
288.865570
 11
-62.039169
 21
251.865570
  0
LINE
  8
LC-004-006-----0
 62
     2
  6
DASHED
 10
-61.689171
 20
264.865570
 11
-67.689171
 21
264.865570
  0
LINE
  8
LC-004-006-----0
 62
     2
  6
DASHED
 10
-67.689171
 20
264.865570
 11
-67.689171
 21
251.865570
  0
LINE
  8
LC-004-006-----0
 62
     2
  6
DASHED
 10
-61.689171
 20
264.865570
 11
-61.689171
 21
251.865570
  0
LINE
  8
LC-003-002-----0
 62
     1
  6
CONTINUOUS
 10
-70.189171
 20
288.865570
 11
-59.189171
 21
288.865570
  0
LINE
  8
LC-003-002-----0
 62
     1
  6
CONTINUOUS
 10
-59.189171
 20
288.865570
 11
-59.189171
 21
293.865570
  0
LINE
  8
LC-003-002-----0
 62
     1
  6
CONTINUOUS
 10
-70.189171
 20
288.865570
 11
-70.189171
 21
293.865570
  0
LINE
  8
LC-004-006-----0
 62
     2
  6
DASHED
 10
-99.189171
 20
286.865570
 11
-56.189171
 21
286.865570
  0
LINE
  8
LC-004-006-----0
 62
     2
  6
DASHED
 10
-99.189171
 20
260.865570
 11
-56.189171
 21
260.865570
  0
CIRCLE
  8
LC-003-002-----0
 62
     1
  6
CONTINUOUS
 10
-166.111603
 20
273.865570
 40
8.500000
  0
ARC
  8
LC-006-012-----0
 62
     2
  6
CONTINUOUS
 10
-186.111603
 20
174.387543
 40
3.000000
 50
171.986007
 51
99.852523
  0
ARC
  8
LC-006-012-----0
 62
     2
  6
CONTINUOUS
 10
-146.111603
 20
174.387543
 40
3.000000
 50
80.147475
 51
8.013986
  0
ARC
  8
LC-006-012-----0
 62
     2
  6
CONTINUOUS
 10
-146.111603
 20
148.387543
 40
3.000000
 50
351.986014
 51
279.852525
  0
ARC
  8
LC-006-012-----0
 62
     2
  6
CONTINUOUS
 10
-186.111603
 20
148.387543
 40
3.000000
 50
260.147477
 51
188.013993
  0
ENDSEC
  0
EOF
