  0
SECTION
  2
HEADER
  9
$LIMMIN
 10
-193.406158
 20
-168.953812
  9
$LIMMAX
 10
-14.044838
 20
14.488148
  9
$EXTMIN
 10
-193.406158
 20
-168.953812
  9
$EXTMAX
 10
-14.044838
 20
14.488148
  0
ENDSEC
  0
SECTION
  2
TABLES
  0
TABLE
  2
LTYPE
 70
     3
  0
LTYPE
  2
CONTINUOUS
 70
    64
  3
Ausgezogene Linie
 72
    65
 73
     0
 40
0.0
  0
LTYPE
  2
DASHED
 70
    64
  3
__ __ __ __ __ __ __ __ __ __ __ __ __ __ __
 72
    65
 73
     2
 40
0.75
 49
0.5
 49
-0.25
  0
LTYPE
  2
DASHDOT
 70
    64
  3
__ . __ . __ . __ . __ . __ . __ . __ . __ . __
 72
    65
 73
     4
 40
1.0
 49
0.5
 49
-0.25
 49
0.0
 49
-0.25
  0
ENDTAB
  0
TABLE
  2
LAYER
 70
     5
  0
LAYER
  2
LC-INFO-1-1-MM-A0-0
 70
    64
 62
     7
  6
CONTINUOUS
  0
LAYER
  2
LC-003-002-----0
 70
    64
 62
     7
  6
CONTINUOUS
  0
LAYER
  2
LC-008-003-----0
 70
    64
 62
     7
  6
CONTINUOUS
  0
LAYER
  2
LC-004-006-----0
 70
    64
 62
     7
  6
CONTINUOUS
  0
LAYER
  2
LC-006-012-----0
 70
    64
 62
     7
  6
CONTINUOUS
  0
ENDTAB
  0
TABLE
  2
STYLE
 70
     1
  0
STYLE
  2
TXT8
 70
    64
 40
0.0
 41
1.0
 50
0.0
 71
     0
 42
3.500000
  3
TXT8
  4

  0
ENDTAB
  0
ENDSEC
  0
SECTION
  2
BLOCKS
  0
ENDSEC
  0
SECTION
  2
ENTITIES
  0
LINE
  8
LC-006-012-----0
 62
     2
  6
CONTINUOUS
 10
-16.944023
 20
-21.212429
 11
-17.196047
 21
-20.305635
  0
LINE
  8
LC-006-012-----0
 62
     2
  6
CONTINUOUS
 10
-17.196047
 20
-20.305635
 11
-17.669636
 21
-18.089567
  0
LINE
  8
LC-006-012-----0
 62
     2
  6
CONTINUOUS
 10
-17.669636
 20
-18.089567
 11
-17.941055
 21
-15.320690
  0
LINE
  8
LC-006-012-----0
 62
     2
  6
CONTINUOUS
 10
-17.941055
 20
-15.320690
 11
-17.586580
 21
-12.755474
  0
LINE
  8
LC-006-012-----0
 62
     2
  6
CONTINUOUS
 10
-17.586580
 20
-12.755474
 11
-17.586580
 21
-12.755474
  0
LINE
  8
LC-006-012-----0
 62
     2
  6
CONTINUOUS
 10
-17.586580
 20
-12.755474
 11
-16.622744
 21
-10.817673
  0
LINE
  8
LC-006-012-----0
 62
     2
  6
CONTINUOUS
 10
-16.622744
 20
-10.817673
 11
-16.505444
 21
-8.401891
  0
LINE
  8
LC-006-012-----0
 62
     2
  6
CONTINUOUS
 10
-16.505444
 20
-8.401891
 11
-16.622744
 21
-5.364324
  0
LINE
  8
LC-006-012-----0
 62
     2
  6
CONTINUOUS
 10
-16.622744
 20
-5.364323
 11
-15.980645
 21
-2.596096
  0
LINE
  8
LC-006-012-----0
 62
     2
  6
CONTINUOUS
 10
-15.980645
 20
-2.596096
 11
-15.498268
 21
-1.212430
  0
LINE
  8
LC-006-012-----0
 62
     2
  6
CONTINUOUS
 10
-94.359306
 20
-21.212429
 11
-94.113182
 21
-20.375458
  0
LINE
  8
LC-006-012-----0
 62
     2
  6
CONTINUOUS
 10
-94.113182
 20
-20.375458
 11
-93.602921
 21
-18.316126
  0
LINE
  8
LC-006-012-----0
 62
     2
  6
CONTINUOUS
 10
-93.602921
 20
-18.316126
 11
-93.170685
 21
-15.711820
  0
LINE
  8
LC-006-012-----0
 62
     2
  6
CONTINUOUS
 10
-93.170685
 20
-15.711820
 11
-93.158646
 21
-13.239924
  0
LINE
  8
LC-006-012-----0
 62
     2
  6
CONTINUOUS
 10
-93.158646
 20
-13.239924
 11
-93.158646
 21
-13.239924
  0
LINE
  8
LC-006-012-----0
 62
     2
  6
CONTINUOUS
 10
-93.158646
 20
-13.239924
 11
-93.319283
 21
-11.786573
  0
LINE
  8
LC-006-012-----0
 62
     2
  6
CONTINUOUS
 10
-93.319283
 20
-11.786573
 11
-93.319283
 21
-11.786573
  0
LINE
  8
LC-006-012-----0
 62
     2
  6
CONTINUOUS
 10
-93.319283
 20
-11.786573
 11
-92.998009
 21
-10.454336
  0
LINE
  8
LC-006-012-----0
 62
     2
  6
CONTINUOUS
 10
-92.998009
 20
-10.454336
 11
-94.029510
 21
-8.181803
  0
LINE
  8
LC-006-012-----0
 62
     2
  6
CONTINUOUS
 10
-94.029510
 20
-8.181803
 11
-95.086319
 21
-5.969885
  0
LINE
  8
LC-006-012-----0
 62
     2
  6
CONTINUOUS
 10
-95.086319
 20
-5.969885
 11
-94.204903
 21
-3.963678
  0
LINE
  8
LC-006-012-----0
 62
     2
  6
CONTINUOUS
 10
-94.204903
 20
-3.963678
 11
-94.283119
 21
-1.789860
  0
LINE
  8
LC-006-012-----0
 62
     2
  6
CONTINUOUS
 10
-94.283119
 20
-1.789860
 11
-94.283119
 21
-1.789860
  0
LINE
  8
LC-006-012-----0
 62
     2
  6
CONTINUOUS
 10
-94.283119
 20
-1.789860
 11
-94.841225
 21
-1.212430
  0
LINE
  8
LC-006-012-----0
 62
     2
  6
CONTINUOUS
 10
-152.111603
 20
-83.633797
 11
-153.018387
 21
-83.885818
  0
LINE
  8
LC-006-012-----0
 62
     2
  6
CONTINUOUS
 10
-153.018387
 20
-83.885818
 11
-155.234467
 21
-84.359406
  0
LINE
  8
LC-006-012-----0
 62
     2
  6
CONTINUOUS
 10
-155.234467
 20
-84.359406
 11
-158.003342
 21
-84.630829
  0
LINE
  8
LC-006-012-----0
 62
     2
  6
CONTINUOUS
 10
-158.003342
 20
-84.630829
 11
-160.568558
 21
-84.276352
  0
LINE
  8
LC-006-012-----0
 62
     2
  6
CONTINUOUS
 10
-160.568558
 20
-84.276352
 11
-160.568558
 21
-84.276352
  0
LINE
  8
LC-006-012-----0
 62
     2
  6
CONTINUOUS
 10
-160.568558
 20
-84.276352
 11
-162.506363
 21
-83.312515
  0
LINE
  8
LC-006-012-----0
 62
     2
  6
CONTINUOUS
 10
-162.506363
 20
-83.312515
 11
-164.922134
 21
-83.195213
  0
LINE
  8
LC-006-012-----0
 62
     2
  6
CONTINUOUS
 10
-164.922134
 20
-83.195213
 11
-167.959702
 21
-83.312515
  0
LINE
  8
LC-006-012-----0
 62
     2
  6
CONTINUOUS
 10
-167.959702
 20
-83.312515
 11
-170.727936
 21
-82.670418
  0
LINE
  8
LC-006-012-----0
 62
     2
  6
CONTINUOUS
 10
-170.727936
 20
-82.670418
 11
-172.111603
 21
-82.188042
  0
LINE
  8
LC-006-012-----0
 62
     2
  6
CONTINUOUS
 10
-152.111603
 20
-166.049072
 11
-152.948578
 21
-165.802948
  0
LINE
  8
LC-006-012-----0
 62
     2
  6
CONTINUOUS
 10
-152.948578
 20
-165.802948
 11
-155.007904
 21
-165.292694
  0
LINE
  8
LC-006-012-----0
 62
     2
  6
CONTINUOUS
 10
-155.007904
 20
-165.292694
 11
-157.612213
 21
-164.860458
  0
LINE
  8
LC-006-012-----0
 62
     2
  6
CONTINUOUS
 10
-157.612213
 20
-164.860458
 11
-160.084106
 21
-164.848419
  0
LINE
  8
LC-006-012-----0
 62
     2
  6
CONTINUOUS
 10
-160.084106
 20
-164.848419
 11
-160.084106
 21
-164.848419
  0
LINE
  8
LC-006-012-----0
 62
     2
  6
CONTINUOUS
 10
-160.084106
 20
-164.848419
 11
-161.537460
 21
-165.009048
  0
LINE
  8
LC-006-012-----0
 62
     2
  6
CONTINUOUS
 10
-161.537460
 20
-165.009048
 11
-161.537460
 21
-165.009048
  0
LINE
  8
LC-006-012-----0
 62
     2
  6
CONTINUOUS
 10
-161.537460
 20
-165.009048
 11
-162.869690
 21
-164.687775
  0
LINE
  8
LC-006-012-----0
 62
     2
  6
CONTINUOUS
 10
-162.869690
 20
-164.687775
 11
-165.142227
 21
-165.719284
  0
LINE
  8
LC-006-012-----0
 62
     2
  6
CONTINUOUS
 10
-165.142227
 20
-165.719284
 11
-167.354141
 21
-166.776093
  0
LINE
  8
LC-006-012-----0
 62
     2
  6
CONTINUOUS
 10
-167.354141
 20
-166.776093
 11
-169.360352
 21
-165.894669
  0
LINE
  8
LC-006-012-----0
 62
     2
  6
CONTINUOUS
 10
-169.360352
 20
-165.894669
 11
-171.534164
 21
-165.972885
  0
LINE
  8
LC-006-012-----0
 62
     2
  6
CONTINUOUS
 10
-171.534164
 20
-165.972885
 11
-171.534164
 21
-165.972885
  0
LINE
  8
LC-006-012-----0
 62
     2
  6
CONTINUOUS
 10
-171.534164
 20
-165.972885
 11
-172.111603
 21
-166.530991
  0
LINE
  8
LC-003-002-----0
 62
     1
  6
CONTINUOUS
 10
-139.611603
 20
-113.399429
 11
-132.111603
 21
-113.399429
  0
LINE
  8
LC-003-002-----0
 62
     1
  6
CONTINUOUS
 10
-139.611603
 20
-102.399429
 11
-132.111603
 21
-102.399429
  0
ARC
  8
LC-003-002-----0
 62
     1
  6
CONTINUOUS
 10
-139.611603
 20
-107.899429
 40
5.500000
 50
90.000003
 51
269.999997
  0
LINE
  8
LC-003-002-----0
 62
     1
  6
CONTINUOUS
 10
-139.111603
 20
13.787570
 11
-132.111603
 21
6.787570
  0
ARC
  8
LC-003-002-----0
 62
     1
  6
CONTINUOUS
 10
-139.611603
 20
-139.899429
 40
5.500000
 50
90.000003
 51
269.999997
  0
LINE
  8
LC-003-002-----0
 62
     1
  6
CONTINUOUS
 10
-185.111603
 20
13.787570
 11
-192.111603
 21
6.787570
  0
LINE
  8
LC-003-002-----0
 62
     1
  6
CONTINUOUS
 10
-192.111603
 20
-36.212429
 11
-132.111603
 21
-36.212429
  0
LINE
  8
LC-003-002-----0
 62
     1
  6
CONTINUOUS
 10
-132.111603
 20
6.787570
 11
-132.111603
 21
-36.212429
  0
LINE
  8
LC-003-002-----0
 62
     1
  6
CONTINUOUS
 10
-185.111603
 20
13.787570
 11
-139.111603
 21
13.787570
  0
LINE
  8
LC-008-003-----0
 62
     2
  6
DASHDOT
 10
-179.577087
 20
-11.212430
 11
-145.115051
 21
-11.212430
  0
LINE
  8
LC-008-003-----0
 62
     2
  6
DASHDOT
 10
-162.111603
 20
6.027588
 11
-162.111603
 21
-28.508280
  0
CIRCLE
  8
LC-003-002-----0
 62
     1
  6
CONTINUOUS
 10
-162.111603
 20
-11.212430
 40
10.000000
  0
CIRCLE
  8
LC-003-002-----0
 62
     1
  6
CONTINUOUS
 10
-162.111603
 20
-11.212430
 40
16.000000
  0
LINE
  8
LC-003-002-----0
 62
     1
  6
CONTINUOUS
 10
-192.111603
 20
6.787570
 11
-192.111603
 21
-36.212429
  0
LINE
  8
LC-004-006-----0
 62
     2
  6
DASHED
 10
-181.311600
 20
7.787570
 11
-181.311600
 21
-36.212429
  0
LINE
  8
LC-004-006-----0
 62
     2
  6
DASHED
 10
-187.911606
 20
7.787570
 11
-187.911606
 21
-36.212429
  0
LINE
  8
LC-004-006-----0
 62
     2
  6
DASHED
 10
-142.911606
 20
7.787570
 11
-142.911606
 21
-36.212429
  0
LINE
  8
LC-008-003-----0
 62
     2
  6
DASHDOT
 10
-184.611603
 20
14.488148
 11
-184.611603
 21
-37.709827
  0
LINE
  8
LC-004-006-----0
 62
     2
  6
DASHED
 10
-136.311600
 20
7.787570
 11
-136.311600
 21
-36.212429
  0
LINE
  8
LC-008-003-----0
 62
     2
  6
DASHDOT
 10
-139.611603
 20
14.488148
 11
-139.611603
 21
-37.709827
  0
LINE
  8
LC-004-006-----0
 62
     2
  6
DASHED
 10
-188.261597
 20
-25.212429
 11
-180.961594
 21
-25.212429
  0
LINE
  8
LC-004-006-----0
 62
     2
  6
DASHED
 10
-180.961594
 20
-25.212429
 11
-180.961594
 21
-36.212429
  0
LINE
  8
LC-004-006-----0
 62
     2
  6
DASHED
 10
-188.261597
 20
-25.212429
 11
-188.261597
 21
-36.212429
  0
LINE
  8
LC-004-006-----0
 62
     2
  6
DASHED
 10
-179.111603
 20
7.787570
 11
-191.111603
 21
7.787570
  0
LINE
  8
LC-003-002-----0
 62
     1
  6
CONTINUOUS
 10
-139.611603
 20
-145.399429
 11
-132.111603
 21
-145.399429
  0
LINE
  8
LC-004-006-----0
 62
     2
  6
DASHED
 10
-135.961594
 20
-25.212429
 11
-143.261597
 21
-25.212429
  0
LINE
  8
LC-004-006-----0
 62
     2
  6
DASHED
 10
-143.261597
 20
-25.212429
 11
-143.261597
 21
-36.212429
  0
LINE
  8
LC-004-006-----0
 62
     2
  6
DASHED
 10
-135.961594
 20
-25.212429
 11
-135.961594
 21
-36.212429
  0
LINE
  8
LC-008-003-----0
 62
     2
  6
DASHDOT
 10
-162.111603
 20
-81.290329
 11
-162.111603
 21
-168.953812
  0
LINE
  8
LC-003-002-----0
 62
     1
  6
CONTINUOUS
 10
-192.111603
 20
-96.899429
 11
-132.111603
 21
-96.899429
  0
LINE
  8
LC-003-002-----0
 62
     1
  6
CONTINUOUS
 10
-184.611603
 20
-113.399429
 11
-192.111603
 21
-113.399429
  0
LINE
  8
LC-003-002-----0
 62
     1
  6
CONTINUOUS
 10
-192.111603
 20
-150.899429
 11
-132.111603
 21
-150.899429
  0
LINE
  8
LC-008-003-----0
 62
     2
  6
DASHDOT
 10
-139.611603
 20
-101.597443
 11
-139.611603
 21
-114.208946
  0
LINE
  8
LC-003-002-----0
 62
     1
  6
CONTINUOUS
 10
-132.111603
 20
-96.899429
 11
-132.111603
 21
-150.899429
  0
LINE
  8
LC-008-003-----0
 62
     2
  6
DASHDOT
 10
-145.527954
 20
-107.899429
 11
-130.817047
 21
-107.899429
  0
LINE
  8
LC-008-003-----0
 62
     2
  6
DASHDOT
 10
-145.527954
 20
-139.899429
 11
-130.817047
 21
-139.899429
  0
CIRCLE
  8
LC-003-002-----0
 62
     1
  6
CONTINUOUS
 10
-139.611603
 20
-107.899429
 40
3.300000
  0
CIRCLE
  8
LC-003-002-----0
 62
     1
  6
CONTINUOUS
 10
-139.611603
 20
-139.899429
 40
3.300000
  0
LINE
  8
LC-008-003-----0
 62
     2
  6
DASHDOT
 10
-139.611603
 20
-133.960648
 11
-139.611603
 21
-145.854645
  0
LINE
  8
LC-004-006-----0
 62
     2
  6
DASHED
 10
-179.111603
 20
7.787570
 11
-179.111603
 21
13.787570
  0
LINE
  8
LC-003-002-----0
 62
     1
  6
CONTINUOUS
 10
-139.611603
 20
-134.399429
 11
-132.111603
 21
-134.399429
  0
LINE
  8
LC-003-002-----0
 62
     1
  6
CONTINUOUS
 10
-184.611603
 20
-102.399429
 11
-192.111603
 21
-102.399429
  0
ARC
  8
LC-003-002-----0
 62
     1
  6
CONTINUOUS
 10
-184.611603
 20
-107.899429
 40
5.500000
 50
269.999997
 51
90.000003
  0
ARC
  8
LC-003-002-----0
 62
     1
  6
CONTINUOUS
 10
-184.611603
 20
-139.899429
 40
5.500000
 50
269.999997
 51
90.000003
  0
LINE
  8
LC-003-002-----0
 62
     1
  6
CONTINUOUS
 10
-184.611603
 20
-145.399429
 11
-192.111603
 21
-145.399429
  0
LINE
  8
LC-008-003-----0
 62
     2
  6
DASHDOT
 10
-184.611603
 20
-101.597443
 11
-184.611603
 21
-113.633034
  0
LINE
  8
LC-003-002-----0
 62
     1
  6
CONTINUOUS
 10
-192.111603
 20
-96.899429
 11
-192.111603
 21
-150.899429
  0
LINE
  8
LC-008-003-----0
 62
     2
  6
DASHDOT
 10
-178.695251
 20
-107.899429
 11
-193.406158
 21
-107.899429
  0
LINE
  8
LC-008-003-----0
 62
     2
  6
DASHDOT
 10
-178.695251
 20
-139.899429
 11
-193.406158
 21
-139.899429
  0
ARC
  8
LC-006-012-----0
 62
     2
  6
CONTINUOUS
 10
-184.611603
 20
-107.899429
 40
3.650000
 50
168.048431
 51
105.847565
  0
CIRCLE
  8
LC-003-002-----0
 62
     1
  6
CONTINUOUS
 10
-184.611603
 20
-139.899429
 40
3.300000
  0
LINE
  8
LC-008-003-----0
 62
     2
  6
DASHDOT
 10
-184.611603
 20
-133.960648
 11
-184.611603
 21
-145.854645
  0
LINE
  8
LC-003-002-----0
 62
     1
  6
CONTINUOUS
 10
-184.611603
 20
-134.399429
 11
-192.111603
 21
-134.399429
  0
LINE
  8
LC-004-006-----0
 62
     2
  6
DASHED
 10
-182.111603
 20
-96.899429
 11
-182.111603
 21
-150.899429
  0
LINE
  8
LC-003-002-----0
 62
     1
  6
CONTINUOUS
 10
-84.209656
 20
6.787570
 11
-30.209656
 21
6.787570
  0
LINE
  8
LC-004-006-----0
 62
     2
  6
DASHED
 10
-142.111603
 20
-96.899429
 11
-142.111603
 21
-150.899429
  0
LINE
  8
LC-003-002-----0
 62
     1
  6
CONTINUOUS
 10
-139.111603
 20
-96.899429
 11
-139.111603
 21
-102.399429
  0
LINE
  8
LC-004-006-----0
 62
     2
  6
DASHED
 10
-152.111603
 20
-96.899429
 11
-152.111603
 21
-150.899429
  0
LINE
  8
LC-004-006-----0
 62
     2
  6
DASHED
 10
-172.111603
 20
-96.899429
 11
-172.111603
 21
-150.899429
  0
LINE
  8
LC-003-002-----0
 62
     1
  6
CONTINUOUS
 10
-152.111603
 20
-96.899429
 11
-152.111603
 21
-83.633797
  0
LINE
  8
LC-003-002-----0
 62
     1
  6
CONTINUOUS
 10
-172.111603
 20
-96.899429
 11
-172.111603
 21
-82.188042
  0
LINE
  8
LC-003-002-----0
 62
     1
  6
CONTINUOUS
 10
-152.111603
 20
-150.899429
 11
-152.111603
 21
-166.049072
  0
LINE
  8
LC-003-002-----0
 62
     1
  6
CONTINUOUS
 10
-172.111603
 20
-150.899429
 11
-172.111603
 21
-166.530991
  0
LINE
  8
LC-004-006-----0
 62
     2
  6
DASHED
 10
-145.111603
 20
7.787570
 11
-133.111603
 21
7.787570
  0
LINE
  8
LC-004-006-----0
 62
     2
  6
DASHED
 10
-84.209656
 20
4.787570
 11
-30.209656
 21
4.787570
  0
LINE
  8
LC-004-006-----0
 62
     2
  6
DASHED
 10
-84.209656
 20
-27.212429
 11
-30.209656
 21
-27.212429
  0
LINE
  8
LC-003-002-----0
 62
     1
  6
CONTINUOUS
 10
-139.111603
 20
-113.399429
 11
-139.111603
 21
-134.399429
  0
LINE
  8
LC-003-002-----0
 62
     1
  6
CONTINUOUS
 10
-139.111603
 20
-145.399429
 11
-139.111603
 21
-150.899429
  0
LINE
  8
LC-003-002-----0
 62
     1
  6
CONTINUOUS
 10
-84.209656
 20
-36.212429
 11
-30.209656
 21
-36.212429
  0
LINE
  8
LC-003-002-----0
 62
     1
  6
CONTINUOUS
 10
-84.209656
 20
13.787570
 11
-30.209656
 21
13.787570
  0
LINE
  8
LC-003-002-----0
 62
     1
  6
CONTINUOUS
 10
-185.111603
 20
-96.899429
 11
-185.111603
 21
-102.399429
  0
LINE
  8
LC-008-003-----0
 62
     2
  6
DASHDOT
 10
-96.021523
 20
-11.212430
 11
-14.044838
 21
-11.212430
  0
LINE
  8
LC-003-002-----0
 62
     1
  6
CONTINUOUS
 10
-84.209656
 20
13.787570
 11
-84.209656
 21
-36.212429
  0
LINE
  8
LC-003-002-----0
 62
     1
  6
CONTINUOUS
 10
-30.209656
 20
13.787570
 11
-30.209656
 21
-36.212429
  0
LINE
  8
LC-003-002-----0
 62
     1
  6
CONTINUOUS
 10
-185.111603
 20
-113.399429
 11
-185.111603
 21
-134.399429
  0
LINE
  8
LC-003-002-----0
 62
     1
  6
CONTINUOUS
 10
-78.709656
 20
7.787570
 11
-78.709656
 21
13.787570
  0
LINE
  8
LC-003-002-----0
 62
     1
  6
CONTINUOUS
 10
-185.111603
 20
-145.399429
 11
-185.111603
 21
-150.899429
  0
LINE
  8
LC-004-006-----0
 62
     2
  6
DASHED
 10
-145.111603
 20
7.787570
 11
-145.111603
 21
13.787570
  0
LINE
  8
LC-004-006-----0
 62
     2
  6
DASHED
 10
-69.909653
 20
7.787570
 11
-69.909653
 21
-36.212429
  0
LINE
  8
LC-004-006-----0
 62
     2
  6
DASHED
 10
-76.509659
 20
7.787570
 11
-76.509659
 21
-36.212429
  0
LINE
  8
LC-008-003-----0
 62
     2
  6
DASHDOT
 10
-73.209656
 20
14.488148
 11
-73.209656
 21
-37.709827
  0
LINE
  8
LC-004-006-----0
 62
     2
  6
DASHED
 10
-76.859657
 20
-25.212429
 11
-69.559654
 21
-25.212429
  0
LINE
  8
LC-004-006-----0
 62
     2
  6
DASHED
 10
-69.559654
 20
-25.212429
 11
-69.559654
 21
-36.212429
  0
LINE
  8
LC-004-006-----0
 62
     2
  6
DASHED
 10
-76.859657
 20
-25.212429
 11
-76.859657
 21
-36.212429
  0
LINE
  8
LC-003-002-----0
 62
     1
  6
CONTINUOUS
 10
-67.709656
 20
7.787570
 11
-78.709656
 21
7.787570
  0
LINE
  8
LC-003-002-----0
 62
     1
  6
CONTINUOUS
 10
-67.709656
 20
7.787570
 11
-67.709656
 21
13.787570
  0
LINE
  8
LC-003-002-----0
 62
     1
  6
CONTINUOUS
 10
-46.709656
 20
7.787570
 11
-46.709656
 21
13.787570
  0
LINE
  8
LC-004-006-----0
 62
     2
  6
DASHED
 10
-37.909657
 20
7.787570
 11
-37.909657
 21
-36.212429
  0
LINE
  8
LC-004-006-----0
 62
     2
  6
DASHED
 10
-44.509655
 20
7.787570
 11
-44.509655
 21
-36.212429
  0
LINE
  8
LC-008-003-----0
 62
     2
  6
DASHDOT
 10
-41.209656
 20
14.488148
 11
-41.209656
 21
-37.709827
  0
LINE
  8
LC-004-006-----0
 62
     2
  6
DASHED
 10
-44.859657
 20
-25.212429
 11
-37.559654
 21
-25.212429
  0
LINE
  8
LC-004-006-----0
 62
     2
  6
DASHED
 10
-37.559654
 20
-25.212429
 11
-37.559654
 21
-36.212429
  0
LINE
  8
LC-004-006-----0
 62
     2
  6
DASHED
 10
-44.859657
 20
-25.212429
 11
-44.859657
 21
-36.212429
  0
LINE
  8
LC-003-002-----0
 62
     1
  6
CONTINUOUS
 10
-35.709656
 20
7.787570
 11
-46.709656
 21
7.787570
  0
LINE
  8
LC-003-002-----0
 62
     1
  6
CONTINUOUS
 10
-35.709656
 20
7.787570
 11
-35.709656
 21
13.787570
  0
LINE
  8
LC-004-006-----0
 62
     2
  6
DASHED
 10
-30.209656
 20
-21.212429
 11
-84.209656
 21
-21.212429
  0
LINE
  8
LC-004-006-----0
 62
     2
  6
DASHED
 10
-30.209656
 20
-1.212430
 11
-84.209656
 21
-1.212430
  0
LINE
  8
LC-003-002-----0
 62
     1
  6
CONTINUOUS
 10
-30.209656
 20
-21.212429
 11
-16.944023
 21
-21.212429
  0
LINE
  8
LC-003-002-----0
 62
     1
  6
CONTINUOUS
 10
-30.209656
 20
-1.212430
 11
-15.498268
 21
-1.212430
  0
LINE
  8
LC-003-002-----0
 62
     1
  6
CONTINUOUS
 10
-84.209656
 20
-21.212429
 11
-94.359306
 21
-21.212429
  0
LINE
  8
LC-003-002-----0
 62
     1
  6
CONTINUOUS
 10
-84.209656
 20
-1.212430
 11
-94.841225
 21
-1.212430
  0
ARC
  8
LC-006-012-----0
 62
     2
  6
CONTINUOUS
 10
-139.611603
 20
-107.899429
 40
3.650000
 50
74.152434
 51
11.951567
  0
CIRCLE
  8
LC-003-002-----0
 62
     1
  6
CONTINUOUS
 10
-184.611603
 20
-107.899429
 40
3.300000
  0
ARC
  8
LC-006-012-----0
 62
     2
  6
CONTINUOUS
 10
-139.611603
 20
-139.899429
 40
3.650000
 50
348.048433
 51
285.847566
  0
ARC
  8
LC-006-012-----0
 62
     2
  6
CONTINUOUS
 10
-184.611603
 20
-139.899429
 40
3.650000
 50
254.152435
 51
191.951569
  0
CIRCLE
  8
LC-003-002-----0
 62
     1
  6
CONTINUOUS
 10
-162.111603
 20
-11.212430
 40
10.500000
  0
ENDSEC
  0
EOF
