  0
SECTION
  2
HEADER
  9
$LIMMIN
 10
141.662491
 20
344.841766
  9
$LIMMAX
 10
356.172974
 20
564.807312
  9
$EXTMIN
 10
141.662491
 20
344.841766
  9
$EXTMAX
 10
356.172974
 20
564.807312
  0
ENDSEC
  0
SECTION
  2
TABLES
  0
TABLE
  2
LTYPE
 70
     3
  0
LTYPE
  2
CONTINUOUS
 70
    64
  3
Ausgezogene Linie
 72
    65
 73
     0
 40
0.0
  0
LTYPE
  2
DASHED
 70
    64
  3
__ __ __ __ __ __ __ __ __ __ __ __ __ __ __
 72
    65
 73
     2
 40
0.75
 49
0.5
 49
-0.25
  0
LTYPE
  2
DASHDOT
 70
    64
  3
__ . __ . __ . __ . __ . __ . __ . __ . __ . __
 72
    65
 73
     4
 40
1.0
 49
0.5
 49
-0.25
 49
0.0
 49
-0.25
  0
ENDTAB
  0
TABLE
  2
LAYER
 70
     5
  0
LAYER
  2
LC-INFO-1-1-MM-A0-0
 70
    64
 62
     7
  6
CONTINUOUS
  0
LAYER
  2
LC-003-002-----0
 70
    64
 62
     7
  6
CONTINUOUS
  0
LAYER
  2
LC-008-003-----0
 70
    64
 62
     7
  6
CONTINUOUS
  0
LAYER
  2
LC-004-006-----0
 70
    64
 62
     7
  6
CONTINUOUS
  0
LAYER
  2
LC-006-012-----0
 70
    64
 62
     7
  6
CONTINUOUS
  0
ENDTAB
  0
TABLE
  2
STYLE
 70
     1
  0
STYLE
  2
TXT8
 70
    64
 40
0.0
 41
1.0
 50
0.0
 71
     0
 42
3.500000
  3
TXT8
  4

  0
ENDTAB
  0
ENDSEC
  0
SECTION
  2
BLOCKS
  0
ENDSEC
  0
SECTION
  2
ENTITIES
  0
LINE
  8
LC-006-012-----0
 62
     2
  6
CONTINUOUS
 10
168.253006
 20
449.782562
 11
169.215637
 21
449.124817
  0
LINE
  8
LC-006-012-----0
 62
     2
  6
CONTINUOUS
 10
169.215637
 20
449.124817
 11
171.554886
 21
447.640015
  0
LINE
  8
LC-006-012-----0
 62
     2
  6
CONTINUOUS
 10
171.554886
 20
447.640015
 11
174.447754
 21
446.060760
  0
LINE
  8
LC-006-012-----0
 62
     2
  6
CONTINUOUS
 10
174.447754
 20
446.060760
 11
177.279419
 21
444.977081
  0
LINE
  8
LC-006-012-----0
 62
     2
  6
CONTINUOUS
 10
177.279419
 20
444.977081
 11
179.852386
 21
444.553986
  0
LINE
  8
LC-006-012-----0
 62
     2
  6
CONTINUOUS
 10
179.852386
 20
444.553986
 11
182.191284
 21
444.780884
  0
LINE
  8
LC-006-012-----0
 62
     2
  6
CONTINUOUS
 10
182.191284
 20
444.780884
 11
184.320709
 21
445.647217
  0
LINE
  8
LC-006-012-----0
 62
     2
  6
CONTINUOUS
 10
184.320709
 20
445.647217
 11
186.750168
 21
447.179138
  0
LINE
  8
LC-006-012-----0
 62
     2
  6
CONTINUOUS
 10
186.750168
 20
447.179138
 11
189.805695
 21
447.714905
  0
LINE
  8
LC-006-012-----0
 62
     2
  6
CONTINUOUS
 10
189.805695
 20
447.714905
 11
189.805695
 21
447.714905
  0
LINE
  8
LC-006-012-----0
 62
     2
  6
CONTINUOUS
 10
189.805695
 20
447.714905
 11
193.253006
 21
446.474304
  0
LINE
  8
LC-006-012-----0
 62
     2
  6
CONTINUOUS
 10
168.253006
 20
349.632019
 11
168.960175
 21
349.977600
  0
LINE
  8
LC-006-012-----0
 62
     2
  6
CONTINUOUS
 10
168.960175
 20
349.977600
 11
170.746460
 21
350.829224
  0
LINE
  8
LC-006-012-----0
 62
     2
  6
CONTINUOUS
 10
170.746460
 20
350.829224
 11
173.108948
 21
351.909332
  0
LINE
  8
LC-006-012-----0
 62
     2
  6
CONTINUOUS
 10
173.108948
 20
351.909332
 11
175.544739
 21
352.940308
  0
LINE
  8
LC-006-012-----0
 62
     2
  6
CONTINUOUS
 10
175.544739
 20
352.940308
 11
177.996414
 21
353.787354
  0
LINE
  8
LC-006-012-----0
 62
     2
  6
CONTINUOUS
 10
177.996414
 20
353.787354
 11
180.165009
 21
354.199677
  0
LINE
  8
LC-006-012-----0
 62
     2
  6
CONTINUOUS
 10
180.165009
 20
354.199677
 11
182.354584
 21
354.189056
  0
LINE
  8
LC-006-012-----0
 62
     2
  6
CONTINUOUS
 10
182.354584
 20
354.189056
 11
184.869202
 21
353.767365
  0
LINE
  8
LC-006-012-----0
 62
     2
  6
CONTINUOUS
 10
184.869202
 20
353.767365
 11
187.638931
 21
353.052216
  0
LINE
  8
LC-006-012-----0
 62
     2
  6
CONTINUOUS
 10
187.638931
 20
353.052216
 11
190.358658
 21
352.235687
  0
LINE
  8
LC-006-012-----0
 62
     2
  6
CONTINUOUS
 10
190.358658
 20
352.235687
 11
192.429611
 21
351.564697
  0
LINE
  8
LC-006-012-----0
 62
     2
  6
CONTINUOUS
 10
192.429611
 20
351.564697
 11
193.253006
 21
351.286163
  0
LINE
  8
LC-006-012-----0
 62
     2
  6
CONTINUOUS
 10
261.022400
 20
546.010071
 11
261.367981
 21
545.302917
  0
LINE
  8
LC-006-012-----0
 62
     2
  6
CONTINUOUS
 10
261.367981
 20
545.302917
 11
262.219604
 21
543.516602
  0
LINE
  8
LC-006-012-----0
 62
     2
  6
CONTINUOUS
 10
262.219604
 20
543.516602
 11
263.299713
 21
541.154114
  0
LINE
  8
LC-006-012-----0
 62
     2
  6
CONTINUOUS
 10
263.299713
 20
541.154114
 11
264.330688
 21
538.718323
  0
LINE
  8
LC-006-012-----0
 62
     2
  6
CONTINUOUS
 10
264.330688
 20
538.718323
 11
265.177765
 21
536.266663
  0
LINE
  8
LC-006-012-----0
 62
     2
  6
CONTINUOUS
 10
265.177765
 20
536.266663
 11
265.590057
 21
534.098083
  0
LINE
  8
LC-006-012-----0
 62
     2
  6
CONTINUOUS
 10
265.590057
 20
534.098083
 11
265.579468
 21
531.908508
  0
LINE
  8
LC-006-012-----0
 62
     2
  6
CONTINUOUS
 10
265.579468
 20
531.908508
 11
265.157745
 21
529.393860
  0
LINE
  8
LC-006-012-----0
 62
     2
  6
CONTINUOUS
 10
265.157745
 20
529.393860
 11
264.442596
 21
526.624146
  0
LINE
  8
LC-006-012-----0
 62
     2
  6
CONTINUOUS
 10
264.442596
 20
526.624146
 11
263.626068
 21
523.904419
  0
LINE
  8
LC-006-012-----0
 62
     2
  6
CONTINUOUS
 10
263.626068
 20
523.904419
 11
262.955078
 21
521.833435
  0
LINE
  8
LC-006-012-----0
 62
     2
  6
CONTINUOUS
 10
262.955078
 20
521.833435
 11
262.676544
 21
521.010071
  0
LINE
  8
LC-006-012-----0
 62
     2
  6
CONTINUOUS
 10
356.172974
 20
546.010071
 11
355.515228
 21
545.047424
  0
LINE
  8
LC-006-012-----0
 62
     2
  6
CONTINUOUS
 10
355.515228
 20
545.047424
 11
354.030396
 21
542.708191
  0
LINE
  8
LC-006-012-----0
 62
     2
  6
CONTINUOUS
 10
354.030396
 20
542.708191
 11
352.451141
 21
539.815308
  0
LINE
  8
LC-006-012-----0
 62
     2
  6
CONTINUOUS
 10
352.451141
 20
539.815308
 11
351.367462
 21
536.983643
  0
LINE
  8
LC-006-012-----0
 62
     2
  6
CONTINUOUS
 10
351.367462
 20
536.983643
 11
350.944366
 21
534.410706
  0
LINE
  8
LC-006-012-----0
 62
     2
  6
CONTINUOUS
 10
350.944366
 20
534.410706
 11
351.171295
 21
532.071777
  0
LINE
  8
LC-006-012-----0
 62
     2
  6
CONTINUOUS
 10
351.171295
 20
532.071777
 11
352.037628
 21
529.942383
  0
LINE
  8
LC-006-012-----0
 62
     2
  6
CONTINUOUS
 10
352.037628
 20
529.942383
 11
353.569550
 21
527.512939
  0
LINE
  8
LC-006-012-----0
 62
     2
  6
CONTINUOUS
 10
353.569550
 20
527.512939
 11
354.105286
 21
524.457397
  0
LINE
  8
LC-006-012-----0
 62
     2
  6
CONTINUOUS
 10
354.105286
 20
524.457397
 11
354.105286
 21
524.457397
  0
LINE
  8
LC-006-012-----0
 62
     2
  6
CONTINUOUS
 10
354.105286
 20
524.457397
 11
352.864685
 21
521.010071
  0
LINE
  8
LC-003-002-----0
 62
     1
  6
CONTINUOUS
 10
151.753006
 20
563.510071
 11
209.753006
 21
563.510071
  0
LINE
  8
LC-003-002-----0
 62
     1
  6
CONTINUOUS
 10
142.753006
 20
503.510071
 11
142.753006
 21
554.510071
  0
LINE
  8
LC-003-002-----0
 62
     1
  6
CONTINUOUS
 10
218.753006
 20
554.510071
 11
218.753006
 21
503.510071
  0
LINE
  8
LC-003-002-----0
 62
     1
  6
CONTINUOUS
 10
142.753006
 20
503.510071
 11
218.753006
 21
503.510071
  0
LINE
  8
LC-003-002-----0
 62
     1
  6
CONTINUOUS
 10
142.753006
 20
434.482941
 11
142.753006
 21
367.482941
  0
LINE
  8
LC-003-002-----0
 62
     1
  6
CONTINUOUS
 10
142.753006
 20
554.510071
 11
151.753006
 21
563.510071
  0
LINE
  8
LC-003-002-----0
 62
     1
  6
CONTINUOUS
 10
209.753006
 20
563.510071
 11
218.753006
 21
554.510071
  0
LINE
  8
LC-003-002-----0
 62
     1
  6
CONTINUOUS
 10
218.753006
 20
434.482941
 11
218.753006
 21
367.482941
  0
LINE
  8
LC-003-002-----0
 62
     1
  6
CONTINUOUS
 10
142.753006
 20
434.482941
 11
218.753006
 21
434.482941
  0
LINE
  8
LC-008-003-----0
 62
     2
  6
DASHDOT
 10
159.067886
 20
533.510071
 11
202.825058
 21
533.510071
  0
LINE
  8
LC-008-003-----0
 62
     2
  6
DASHDOT
 10
180.753006
 20
512.050964
 11
180.753006
 21
555.206299
  0
CIRCLE
  8
LC-003-002-----0
 62
     1
  6
CONTINUOUS
 10
180.753006
 20
533.510071
 40
12.500000
  0
CIRCLE
  8
LC-003-002-----0
 62
     1
  6
CONTINUOUS
 10
180.753006
 20
533.510071
 40
20.000000
  0
LINE
  8
LC-008-003-----0
 62
     2
  6
DASHDOT
 10
150.753006
 20
502.171051
 11
150.753006
 21
564.807312
  0
LINE
  8
LC-008-003-----0
 62
     2
  6
DASHDOT
 10
210.753006
 20
564.807312
 11
210.753006
 21
502.171051
  0
LINE
  8
LC-004-006-----0
 62
     2
  6
DASHED
 10
154.953003
 20
525.510071
 11
154.953003
 21
555.510071
  0
LINE
  8
LC-004-006-----0
 62
     2
  6
DASHED
 10
146.552994
 20
525.510071
 11
146.552994
 21
555.510071
  0
LINE
  8
LC-004-006-----0
 62
     2
  6
DASHED
 10
214.953003
 20
555.510071
 11
214.953003
 21
525.510071
  0
LINE
  8
LC-004-006-----0
 62
     2
  6
DASHED
 10
206.552994
 20
555.510071
 11
206.552994
 21
525.510071
  0
LINE
  8
LC-004-006-----0
 62
     2
  6
DASHED
 10
143.753006
 20
555.510071
 11
158.253006
 21
555.510071
  0
LINE
  8
LC-004-006-----0
 62
     2
  6
DASHED
 10
158.253006
 20
555.510071
 11
158.253006
 21
563.510071
  0
LINE
  8
LC-004-006-----0
 62
     2
  6
DASHED
 10
217.753006
 20
555.510071
 11
203.253006
 21
555.510071
  0
LINE
  8
LC-004-006-----0
 62
     2
  6
DASHED
 10
203.253006
 20
555.510071
 11
203.253006
 21
563.510071
  0
LINE
  8
LC-003-002-----0
 62
     1
  6
CONTINUOUS
 10
142.753006
 20
367.482941
 11
218.753006
 21
367.482941
  0
LINE
  8
LC-008-003-----0
 62
     2
  6
DASHDOT
 10
180.753006
 20
453.509827
 11
180.753006
 21
344.841766
  0
LINE
  8
LC-003-002-----0
 62
     1
  6
CONTINUOUS
 10
193.253006
 20
446.474304
 11
193.253006
 21
434.482941
  0
LINE
  8
LC-003-002-----0
 62
     1
  6
CONTINUOUS
 10
168.253006
 20
449.782562
 11
168.253006
 21
434.482941
  0
LINE
  8
LC-004-006-----0
 62
     2
  6
DASHED
 10
168.253006
 20
434.482941
 11
168.253006
 21
367.482941
  0
LINE
  8
LC-003-002-----0
 62
     1
  6
CONTINUOUS
 10
168.253006
 20
367.482941
 11
168.253006
 21
349.632019
  0
LINE
  8
LC-004-006-----0
 62
     2
  6
DASHED
 10
193.253006
 20
434.482941
 11
193.253006
 21
367.482941
  0
LINE
  8
LC-003-002-----0
 62
     1
  6
CONTINUOUS
 10
193.253006
 20
367.482941
 11
193.253006
 21
351.286163
  0
LINE
  8
LC-003-002-----0
 62
     1
  6
CONTINUOUS
 10
273.873322
 20
554.510071
 11
340.873322
 21
554.510071
  0
LINE
  8
LC-008-003-----0
 62
     2
  6
DASHDOT
 10
141.662491
 20
420.982941
 11
159.553070
 21
420.982941
  0
LINE
  8
LC-008-003-----0
 62
     2
  6
DASHDOT
 10
141.662491
 20
380.982941
 11
159.553070
 21
380.982941
  0
LINE
  8
LC-008-003-----0
 62
     2
  6
DASHDOT
 10
150.753006
 20
429.259094
 11
150.753006
 21
412.105316
  0
LINE
  8
LC-008-003-----0
 62
     2
  6
DASHDOT
 10
210.753006
 20
429.259094
 11
210.753006
 21
411.958710
  0
LINE
  8
LC-004-006-----0
 62
     2
  6
DASHED
 10
145.753006
 20
525.510071
 11
155.753006
 21
525.510071
  0
LINE
  8
LC-004-006-----0
 62
     2
  6
DASHED
 10
155.753006
 20
503.510071
 11
155.753006
 21
525.510071
  0
LINE
  8
LC-004-006-----0
 62
     2
  6
DASHED
 10
154.753006
 20
503.510071
 11
154.753006
 21
525.510071
  0
LINE
  8
LC-004-006-----0
 62
     2
  6
DASHED
 10
145.753006
 20
503.510071
 11
145.753006
 21
525.510071
  0
LINE
  8
LC-008-003-----0
 62
     2
  6
DASHDOT
 10
201.751511
 20
380.982941
 11
220.225479
 21
380.982941
  0
LINE
  8
LC-008-003-----0
 62
     2
  6
DASHDOT
 10
201.751511
 20
420.982941
 11
220.225479
 21
420.982941
  0
LINE
  8
LC-008-003-----0
 62
     2
  6
DASHDOT
 10
210.753006
 20
389.966705
 11
210.753006
 21
372.373108
  0
LINE
  8
LC-008-003-----0
 62
     2
  6
DASHDOT
 10
150.753006
 20
389.820099
 11
150.753006
 21
372.079895
  0
ARC
  8
LC-003-002-----0
 62
     1
  6
CONTINUOUS
 10
150.753006
 20
420.982941
 40
7.500000
 50
269.999997
 51
90.000003
  0
ARC
  8
LC-003-002-----0
 62
     1
  6
CONTINUOUS
 10
150.753006
 20
380.982941
 40
7.500000
 50
269.999997
 51
90.000003
  0
ARC
  8
LC-003-002-----0
 62
     1
  6
CONTINUOUS
 10
210.753006
 20
420.982941
 40
7.500000
 50
90.000003
 51
269.999997
  0
ARC
  8
LC-003-002-----0
 62
     1
  6
CONTINUOUS
 10
210.753006
 20
380.982941
 40
7.500000
 50
90.000003
 51
269.999997
  0
LINE
  8
LC-003-002-----0
 62
     1
  6
CONTINUOUS
 10
150.753006
 20
428.482941
 11
142.753006
 21
428.482941
  0
LINE
  8
LC-003-002-----0
 62
     1
  6
CONTINUOUS
 10
150.753006
 20
413.482941
 11
142.753006
 21
413.482941
  0
LINE
  8
LC-003-002-----0
 62
     1
  6
CONTINUOUS
 10
150.753006
 20
388.482941
 11
142.753006
 21
388.482941
  0
LINE
  8
LC-003-002-----0
 62
     1
  6
CONTINUOUS
 10
150.753006
 20
373.482941
 11
142.753006
 21
373.482941
  0
LINE
  8
LC-003-002-----0
 62
     1
  6
CONTINUOUS
 10
210.753006
 20
428.482941
 11
218.753006
 21
428.482941
  0
LINE
  8
LC-003-002-----0
 62
     1
  6
CONTINUOUS
 10
210.753006
 20
413.482941
 11
218.753006
 21
413.482941
  0
LINE
  8
LC-003-002-----0
 62
     1
  6
CONTINUOUS
 10
210.753006
 20
388.482941
 11
218.753006
 21
388.482941
  0
LINE
  8
LC-003-002-----0
 62
     1
  6
CONTINUOUS
 10
210.753006
 20
373.482941
 11
218.753006
 21
373.482941
  0
LINE
  8
LC-003-002-----0
 62
     1
  6
CONTINUOUS
 10
209.753006
 20
434.482941
 11
209.753006
 21
428.415985
  0
LINE
  8
LC-003-002-----0
 62
     1
  6
CONTINUOUS
 10
209.753006
 20
413.549896
 11
209.753006
 21
388.415985
  0
LINE
  8
LC-003-002-----0
 62
     1
  6
CONTINUOUS
 10
209.753006
 20
373.549896
 11
209.753006
 21
367.482941
  0
LINE
  8
LC-004-006-----0
 62
     2
  6
DASHED
 10
160.753006
 20
434.482941
 11
160.753006
 21
367.482941
  0
LINE
  8
LC-004-006-----0
 62
     2
  6
DASHED
 10
200.753006
 20
434.482941
 11
200.753006
 21
367.482941
  0
LINE
  8
LC-003-002-----0
 62
     1
  6
CONTINUOUS
 10
273.873322
 20
503.510071
 11
340.873322
 21
503.510071
  0
LINE
  8
LC-003-002-----0
 62
     1
  6
CONTINUOUS
 10
273.873322
 20
563.510071
 11
340.873322
 21
563.510071
  0
LINE
  8
LC-003-002-----0
 62
     1
  6
CONTINUOUS
 10
273.873322
 20
503.510071
 11
273.873322
 21
563.510071
  0
LINE
  8
LC-003-002-----0
 62
     1
  6
CONTINUOUS
 10
340.873322
 20
503.510071
 11
340.873322
 21
563.510071
  0
LINE
  8
LC-003-002-----0
 62
     1
  6
CONTINUOUS
 10
352.864685
 20
521.010071
 11
340.873322
 21
521.010071
  0
LINE
  8
LC-003-002-----0
 62
     1
  6
CONTINUOUS
 10
356.172974
 20
546.010071
 11
340.873322
 21
546.010071
  0
LINE
  8
LC-004-006-----0
 62
     2
  6
DASHED
 10
340.873322
 20
546.010071
 11
273.873322
 21
546.010071
  0
LINE
  8
LC-003-002-----0
 62
     1
  6
CONTINUOUS
 10
273.873322
 20
546.010071
 11
261.022400
 21
546.010071
  0
LINE
  8
LC-004-006-----0
 62
     2
  6
DASHED
 10
340.873322
 20
521.010071
 11
273.873322
 21
521.010071
  0
LINE
  8
LC-003-002-----0
 62
     1
  6
CONTINUOUS
 10
273.873322
 20
521.010071
 11
262.676544
 21
521.010071
  0
LINE
  8
LC-008-003-----0
 62
     2
  6
DASHDOT
 10
259.914124
 20
533.510071
 11
355.837616
 21
533.510071
  0
LINE
  8
LC-004-006-----0
 62
     2
  6
DASHED
 10
273.873322
 20
513.510071
 11
340.873322
 21
513.510071
  0
LINE
  8
LC-004-006-----0
 62
     2
  6
DASHED
 10
273.873322
 20
553.510071
 11
340.873322
 21
553.510071
  0
LINE
  8
LC-003-002-----0
 62
     1
  6
CONTINUOUS
 10
151.753006
 20
434.482941
 11
151.753006
 21
428.415985
  0
LINE
  8
LC-008-003-----0
 62
     2
  6
DASHDOT
 10
287.373322
 20
502.171051
 11
287.373322
 21
564.807312
  0
LINE
  8
LC-004-006-----0
 62
     2
  6
DASHED
 10
291.573334
 20
525.510071
 11
291.573334
 21
555.510071
  0
LINE
  8
LC-004-006-----0
 62
     2
  6
DASHED
 10
283.173340
 20
525.510071
 11
283.173340
 21
555.510071
  0
LINE
  8
LC-003-002-----0
 62
     1
  6
CONTINUOUS
 10
280.373322
 20
555.510071
 11
294.873322
 21
555.510071
  0
LINE
  8
LC-003-002-----0
 62
     1
  6
CONTINUOUS
 10
294.873322
 20
555.510071
 11
294.873322
 21
563.510071
  0
LINE
  8
LC-008-003-----0
 62
     2
  6
DASHDOT
 10
327.373322
 20
564.807312
 11
327.373322
 21
502.171051
  0
LINE
  8
LC-004-006-----0
 62
     2
  6
DASHED
 10
331.573334
 20
555.510071
 11
331.573334
 21
525.510071
  0
LINE
  8
LC-004-006-----0
 62
     2
  6
DASHED
 10
323.173340
 20
555.510071
 11
323.173340
 21
525.510071
  0
LINE
  8
LC-003-002-----0
 62
     1
  6
CONTINUOUS
 10
334.373322
 20
555.510071
 11
319.873322
 21
555.510071
  0
LINE
  8
LC-003-002-----0
 62
     1
  6
CONTINUOUS
 10
319.873322
 20
555.510071
 11
319.873322
 21
563.510071
  0
LINE
  8
LC-003-002-----0
 62
     1
  6
CONTINUOUS
 10
334.873322
 20
555.510071
 11
334.873322
 21
563.510071
  0
LINE
  8
LC-003-002-----0
 62
     1
  6
CONTINUOUS
 10
279.873322
 20
555.510071
 11
279.873322
 21
563.510071
  0
LINE
  8
LC-004-006-----0
 62
     2
  6
DASHED
 10
146.753006
 20
503.510071
 11
146.753006
 21
525.510071
  0
LINE
  8
LC-004-006-----0
 62
     2
  6
DASHED
 10
205.753006
 20
503.510071
 11
205.753006
 21
525.510071
  0
LINE
  8
LC-004-006-----0
 62
     2
  6
DASHED
 10
206.753006
 20
503.510071
 11
206.753006
 21
525.510071
  0
LINE
  8
LC-004-006-----0
 62
     2
  6
DASHED
 10
214.753006
 20
503.510071
 11
214.753006
 21
525.510071
  0
LINE
  8
LC-004-006-----0
 62
     2
  6
DASHED
 10
215.753006
 20
503.510071
 11
215.753006
 21
525.510071
  0
LINE
  8
LC-004-006-----0
 62
     2
  6
DASHED
 10
215.753006
 20
525.510071
 11
205.753006
 21
525.510071
  0
CIRCLE
  8
LC-003-002-----0
 62
     1
  6
CONTINUOUS
 10
180.753006
 20
533.510071
 40
13.000000
  0
LINE
  8
LC-004-006-----0
 62
     2
  6
DASHED
 10
291.373322
 20
503.510071
 11
291.373322
 21
525.510071
  0
LINE
  8
LC-004-006-----0
 62
     2
  6
DASHED
 10
292.373322
 20
503.510071
 11
292.373322
 21
525.510071
  0
LINE
  8
LC-004-006-----0
 62
     2
  6
DASHED
 10
283.373322
 20
503.510071
 11
283.373322
 21
525.510071
  0
LINE
  8
LC-004-006-----0
 62
     2
  6
DASHED
 10
282.373322
 20
503.510071
 11
282.373322
 21
525.510071
  0
LINE
  8
LC-004-006-----0
 62
     2
  6
DASHED
 10
292.373322
 20
525.510071
 11
282.373322
 21
525.510071
  0
LINE
  8
LC-004-006-----0
 62
     2
  6
DASHED
 10
331.373322
 20
503.510071
 11
331.373322
 21
525.510071
  0
LINE
  8
LC-004-006-----0
 62
     2
  6
DASHED
 10
332.373322
 20
503.510071
 11
332.373322
 21
525.510071
  0
LINE
  8
LC-004-006-----0
 62
     2
  6
DASHED
 10
323.373322
 20
503.510071
 11
323.373322
 21
525.510071
  0
LINE
  8
LC-004-006-----0
 62
     2
  6
DASHED
 10
322.373322
 20
503.510071
 11
322.373322
 21
525.510071
  0
LINE
  8
LC-004-006-----0
 62
     2
  6
DASHED
 10
332.373322
 20
525.510071
 11
322.373322
 21
525.510071
  0
ARC
  8
LC-006-012-----0
 62
     2
  6
CONTINUOUS
 10
150.753006
 20
420.982941
 40
5.000000
 50
85.394761
 51
6.963004
  0
CIRCLE
  8
LC-003-002-----0
 62
     1
  6
CONTINUOUS
 10
150.753006
 20
420.982941
 40
4.000000
  0
ARC
  8
LC-006-012-----0
 62
     2
  6
CONTINUOUS
 10
210.753006
 20
420.982941
 40
5.000000
 50
173.036996
 51
94.605237
  0
CIRCLE
  8
LC-003-002-----0
 62
     1
  6
CONTINUOUS
 10
210.753006
 20
420.982941
 40
4.000000
  0
ARC
  8
LC-006-012-----0
 62
     2
  6
CONTINUOUS
 10
210.753006
 20
380.982941
 40
5.000000
 50
265.394763
 51
186.963004
  0
CIRCLE
  8
LC-003-002-----0
 62
     1
  6
CONTINUOUS
 10
210.753006
 20
380.982941
 40
4.000000
  0
ARC
  8
LC-006-012-----0
 62
     2
  6
CONTINUOUS
 10
150.753006
 20
380.982941
 40
5.000000
 50
353.036996
 51
274.605239
  0
CIRCLE
  8
LC-003-002-----0
 62
     1
  6
CONTINUOUS
 10
150.753006
 20
380.982941
 40
4.000000
  0
LINE
  8
LC-003-002-----0
 62
     1
  6
CONTINUOUS
 10
151.753006
 20
413.549896
 11
151.753006
 21
388.415985
  0
LINE
  8
LC-003-002-----0
 62
     1
  6
CONTINUOUS
 10
151.753006
 20
373.549896
 11
151.753006
 21
367.482941
  0
ENDSEC
  0
EOF
