  0
SECTION
  2
HEADER
  9
$LIMMIN
 10
504.305664
 20
275.289581
  9
$LIMMAX
 10
799.063110
 20
566.115479
  9
$EXTMIN
 10
504.305664
 20
275.289581
  9
$EXTMAX
 10
799.063110
 20
566.115479
  0
ENDSEC
  0
SECTION
  2
TABLES
  0
TABLE
  2
LTYPE
 70
     3
  0
LTYPE
  2
CONTINUOUS
 70
    64
  3
Ausgezogene Linie
 72
    65
 73
     0
 40
0.0
  0
LTYPE
  2
DASHED
 70
    64
  3
__ __ __ __ __ __ __ __ __ __ __ __ __ __ __
 72
    65
 73
     2
 40
0.75
 49
0.5
 49
-0.25
  0
LTYPE
  2
DASHDOT
 70
    64
  3
__ . __ . __ . __ . __ . __ . __ . __ . __ . __
 72
    65
 73
     4
 40
1.0
 49
0.5
 49
-0.25
 49
0.0
 49
-0.25
  0
ENDTAB
  0
TABLE
  2
LAYER
 70
     5
  0
LAYER
  2
LC-INFO-1-1-MM-A0-0
 70
    64
 62
     7
  6
CONTINUOUS
  0
LAYER
  2
LC-003-002-----0
 70
    64
 62
     7
  6
CONTINUOUS
  0
LAYER
  2
LC-008-003-----0
 70
    64
 62
     7
  6
CONTINUOUS
  0
LAYER
  2
LC-004-006-----0
 70
    64
 62
     7
  6
CONTINUOUS
  0
LAYER
  2
LC-006-012-----0
 70
    64
 62
     7
  6
CONTINUOUS
  0
ENDTAB
  0
TABLE
  2
STYLE
 70
     1
  0
STYLE
  2
TXT8
 70
    64
 40
0.0
 41
1.0
 50
0.0
 71
     0
 42
3.500000
  3
TXT8
  4

  0
ENDTAB
  0
ENDSEC
  0
SECTION
  2
BLOCKS
  0
ENDSEC
  0
SECTION
  2
ENTITIES
  0
LINE
  8
LC-006-012-----0
 62
     2
  6
CONTINUOUS
 10
667.385376
 20
538.510071
 11
667.254456
 21
538.052307
  0
LINE
  8
LC-006-012-----0
 62
     2
  6
CONTINUOUS
 10
667.254456
 20
538.052307
 11
666.911621
 21
536.795410
  0
LINE
  8
LC-006-012-----0
 62
     2
  6
CONTINUOUS
 10
666.911621
 20
536.795410
 11
666.431946
 21
534.914307
  0
LINE
  8
LC-006-012-----0
 62
     2
  6
CONTINUOUS
 10
666.431946
 20
534.914307
 11
665.890320
 21
532.583740
  0
LINE
  8
LC-006-012-----0
 62
     2
  6
CONTINUOUS
 10
665.890320
 20
532.583740
 11
665.361816
 21
529.978455
  0
LINE
  8
LC-006-012-----0
 62
     2
  6
CONTINUOUS
 10
665.361816
 20
529.978455
 11
664.921387
 21
527.273376
  0
LINE
  8
LC-006-012-----0
 62
     2
  6
CONTINUOUS
 10
664.921387
 20
527.273376
 11
664.644043
 21
524.643311
  0
LINE
  8
LC-006-012-----0
 62
     2
  6
CONTINUOUS
 10
664.644043
 20
524.643311
 11
664.597351
 21
521.967041
  0
LINE
  8
LC-006-012-----0
 62
     2
  6
CONTINUOUS
 10
664.597351
 20
521.967041
 11
664.821472
 21
519.552673
  0
LINE
  8
LC-006-012-----0
 62
     2
  6
CONTINUOUS
 10
664.821472
 20
519.552673
 11
665.291748
 21
517.352173
  0
LINE
  8
LC-006-012-----0
 62
     2
  6
CONTINUOUS
 10
665.291748
 20
517.352173
 11
665.983643
 21
515.317566
  0
LINE
  8
LC-006-012-----0
 62
     2
  6
CONTINUOUS
 10
665.983643
 20
515.317566
 11
666.872437
 21
513.400696
  0
LINE
  8
LC-006-012-----0
 62
     2
  6
CONTINUOUS
 10
666.872437
 20
513.400696
 11
667.933655
 21
511.553619
  0
LINE
  8
LC-006-012-----0
 62
     2
  6
CONTINUOUS
 10
667.933655
 20
511.553619
 11
668.989563
 21
509.847137
  0
LINE
  8
LC-006-012-----0
 62
     2
  6
CONTINUOUS
 10
668.989563
 20
509.847137
 11
669.833191
 21
507.970703
  0
LINE
  8
LC-006-012-----0
 62
     2
  6
CONTINUOUS
 10
669.833191
 20
507.970703
 11
670.126709
 21
505.735992
  0
LINE
  8
LC-006-012-----0
 62
     2
  6
CONTINUOUS
 10
670.126709
 20
505.735992
 11
670.126709
 21
505.735992
  0
LINE
  8
LC-006-012-----0
 62
     2
  6
CONTINUOUS
 10
670.126709
 20
505.735992
 11
669.507385
 21
502.525665
  0
LINE
  8
LC-006-012-----0
 62
     2
  6
CONTINUOUS
 10
669.507385
 20
502.525665
 11
668.476868
 21
499.714996
  0
LINE
  8
LC-006-012-----0
 62
     2
  6
CONTINUOUS
 10
668.476868
 20
499.714996
 11
667.933655
 21
498.510071
  0
LINE
  8
LC-006-012-----0
 62
     2
  6
CONTINUOUS
 10
667.933655
 20
498.510071
 11
667.933655
 21
498.510071
  0
LINE
  8
LC-006-012-----0
 62
     2
  6
CONTINUOUS
 10
796.490723
 20
538.510071
 11
796.210449
 21
537.927185
  0
LINE
  8
LC-006-012-----0
 62
     2
  6
CONTINUOUS
 10
796.210449
 20
537.927185
 11
795.518311
 21
536.381226
  0
LINE
  8
LC-006-012-----0
 62
     2
  6
CONTINUOUS
 10
795.518311
 20
536.381226
 11
794.637329
 21
534.176392
  0
LINE
  8
LC-006-012-----0
 62
     2
  6
CONTINUOUS
 10
794.637329
 20
534.176392
 11
793.790588
 21
531.616760
  0
LINE
  8
LC-006-012-----0
 62
     2
  6
CONTINUOUS
 10
793.790588
 20
531.616760
 11
793.201111
 21
529.006531
  0
LINE
  8
LC-006-012-----0
 62
     2
  6
CONTINUOUS
 10
793.201111
 20
529.006531
 11
793.045105
 21
526.412048
  0
LINE
  8
LC-006-012-----0
 62
     2
  6
CONTINUOUS
 10
793.045105
 20
526.412048
 11
793.336426
 21
524.066650
  0
LINE
  8
LC-006-012-----0
 62
     2
  6
CONTINUOUS
 10
793.336426
 20
524.066650
 11
793.963196
 21
521.924133
  0
LINE
  8
LC-006-012-----0
 62
     2
  6
CONTINUOUS
 10
793.963196
 20
521.924133
 11
794.813538
 21
519.938538
  0
LINE
  8
LC-006-012-----0
 62
     2
  6
CONTINUOUS
 10
794.813538
 20
519.938538
 11
795.775574
 21
518.063782
  0
LINE
  8
LC-006-012-----0
 62
     2
  6
CONTINUOUS
 10
795.775574
 20
518.063782
 11
796.737488
 21
516.253784
  0
LINE
  8
LC-006-012-----0
 62
     2
  6
CONTINUOUS
 10
796.737488
 20
516.253784
 11
797.587280
 21
514.462402
  0
LINE
  8
LC-006-012-----0
 62
     2
  6
CONTINUOUS
 10
797.587280
 20
514.462402
 11
798.194946
 21
512.750061
  0
LINE
  8
LC-006-012-----0
 62
     2
  6
CONTINUOUS
 10
798.194946
 20
512.750061
 11
798.579285
 21
510.944641
  0
LINE
  8
LC-006-012-----0
 62
     2
  6
CONTINUOUS
 10
798.579285
 20
510.944641
 11
798.714600
 21
508.977325
  0
LINE
  8
LC-006-012-----0
 62
     2
  6
CONTINUOUS
 10
798.714600
 20
508.977325
 11
798.575256
 21
506.779266
  0
LINE
  8
LC-006-012-----0
 62
     2
  6
CONTINUOUS
 10
798.575256
 20
506.779266
 11
798.135559
 21
504.281586
  0
LINE
  8
LC-006-012-----0
 62
     2
  6
CONTINUOUS
 10
798.135559
 20
504.281586
 11
797.448181
 21
501.620911
  0
LINE
  8
LC-006-012-----0
 62
     2
  6
CONTINUOUS
 10
797.448181
 20
501.620911
 11
796.786682
 21
499.424225
  0
LINE
  8
LC-006-012-----0
 62
     2
  6
CONTINUOUS
 10
796.786682
 20
499.424225
 11
796.490723
 21
498.510071
  0
LINE
  8
LC-006-012-----0
 62
     2
  6
CONTINUOUS
 10
539.876465
 20
284.610138
 11
540.334229
 21
284.479218
  0
LINE
  8
LC-006-012-----0
 62
     2
  6
CONTINUOUS
 10
540.334229
 20
284.479218
 11
541.591125
 21
284.136414
  0
LINE
  8
LC-006-012-----0
 62
     2
  6
CONTINUOUS
 10
541.591125
 20
284.136414
 11
543.472229
 21
283.656708
  0
LINE
  8
LC-006-012-----0
 62
     2
  6
CONTINUOUS
 10
543.472229
 20
283.656708
 11
545.802795
 21
283.115112
  0
LINE
  8
LC-006-012-----0
 62
     2
  6
CONTINUOUS
 10
545.802795
 20
283.115112
 11
548.408081
 21
282.586609
  0
LINE
  8
LC-006-012-----0
 62
     2
  6
CONTINUOUS
 10
548.408081
 20
282.586609
 11
551.113159
 21
282.146179
  0
LINE
  8
LC-006-012-----0
 62
     2
  6
CONTINUOUS
 10
551.113159
 20
282.146179
 11
553.743286
 21
281.868805
  0
LINE
  8
LC-006-012-----0
 62
     2
  6
CONTINUOUS
 10
553.743286
 20
281.868805
 11
556.419495
 21
281.822113
  0
LINE
  8
LC-006-012-----0
 62
     2
  6
CONTINUOUS
 10
556.419495
 20
281.822113
 11
558.833862
 21
282.046204
  0
LINE
  8
LC-006-012-----0
 62
     2
  6
CONTINUOUS
 10
558.833862
 20
282.046204
 11
561.034363
 21
282.516510
  0
LINE
  8
LC-006-012-----0
 62
     2
  6
CONTINUOUS
 10
561.034363
 20
282.516510
 11
563.069031
 21
283.208374
  0
LINE
  8
LC-006-012-----0
 62
     2
  6
CONTINUOUS
 10
563.069031
 20
283.208374
 11
564.985840
 21
284.097229
  0
LINE
  8
LC-006-012-----0
 62
     2
  6
CONTINUOUS
 10
564.985840
 20
284.097229
 11
566.832947
 21
285.158417
  0
LINE
  8
LC-006-012-----0
 62
     2
  6
CONTINUOUS
 10
566.832947
 20
285.158417
 11
568.539429
 21
286.214355
  0
LINE
  8
LC-006-012-----0
 62
     2
  6
CONTINUOUS
 10
568.539429
 20
286.214355
 11
570.415833
 21
287.057953
  0
LINE
  8
LC-006-012-----0
 62
     2
  6
CONTINUOUS
 10
570.415833
 20
287.057953
 11
572.650574
 21
287.351501
  0
LINE
  8
LC-006-012-----0
 62
     2
  6
CONTINUOUS
 10
572.650574
 20
287.351501
 11
575.860840
 21
286.732117
  0
LINE
  8
LC-006-012-----0
 62
     2
  6
CONTINUOUS
 10
575.860840
 20
286.732117
 11
578.671570
 21
285.701599
  0
LINE
  8
LC-006-012-----0
 62
     2
  6
CONTINUOUS
 10
578.671570
 20
285.701599
 11
579.876465
 21
285.158417
  0
LINE
  8
LC-006-012-----0
 62
     2
  6
CONTINUOUS
 10
579.876465
 20
285.158417
 11
579.876465
 21
285.158417
  0
LINE
  8
LC-006-012-----0
 62
     2
  6
CONTINUOUS
 10
539.876465
 20
413.715485
 11
540.459351
 21
413.435211
  0
LINE
  8
LC-006-012-----0
 62
     2
  6
CONTINUOUS
 10
540.459351
 20
413.435211
 11
542.005310
 21
412.743042
  0
LINE
  8
LC-006-012-----0
 62
     2
  6
CONTINUOUS
 10
542.005310
 20
412.743042
 11
544.210144
 21
411.862061
  0
LINE
  8
LC-006-012-----0
 62
     2
  6
CONTINUOUS
 10
544.210144
 20
411.862061
 11
546.769775
 21
411.015320
  0
LINE
  8
LC-006-012-----0
 62
     2
  6
CONTINUOUS
 10
546.769775
 20
411.015320
 11
549.380005
 21
410.425873
  0
LINE
  8
LC-006-012-----0
 62
     2
  6
CONTINUOUS
 10
549.380005
 20
410.425873
 11
551.974487
 21
410.269897
  0
LINE
  8
LC-006-012-----0
 62
     2
  6
CONTINUOUS
 10
551.974487
 20
410.269897
 11
554.319885
 21
410.561218
  0
LINE
  8
LC-006-012-----0
 62
     2
  6
CONTINUOUS
 10
554.319885
 20
410.561218
 11
556.462402
 21
411.187988
  0
LINE
  8
LC-006-012-----0
 62
     2
  6
CONTINUOUS
 10
556.462402
 20
411.187988
 11
558.447998
 21
412.038330
  0
LINE
  8
LC-006-012-----0
 62
     2
  6
CONTINUOUS
 10
558.447998
 20
412.038330
 11
560.322754
 21
413.000366
  0
LINE
  8
LC-006-012-----0
 62
     2
  6
CONTINUOUS
 10
560.322754
 20
413.000366
 11
562.132751
 21
413.962219
  0
LINE
  8
LC-006-012-----0
 62
     2
  6
CONTINUOUS
 10
562.132751
 20
413.962219
 11
563.924133
 21
414.812042
  0
LINE
  8
LC-006-012-----0
 62
     2
  6
CONTINUOUS
 10
563.924133
 20
414.812042
 11
565.636475
 21
415.419739
  0
LINE
  8
LC-006-012-----0
 62
     2
  6
CONTINUOUS
 10
565.636475
 20
415.419739
 11
567.441895
 21
415.804077
  0
LINE
  8
LC-006-012-----0
 62
     2
  6
CONTINUOUS
 10
567.441895
 20
415.804077
 11
569.409241
 21
415.939392
  0
LINE
  8
LC-006-012-----0
 62
     2
  6
CONTINUOUS
 10
569.409241
 20
415.939392
 11
571.607300
 21
415.800018
  0
LINE
  8
LC-006-012-----0
 62
     2
  6
CONTINUOUS
 10
571.607300
 20
415.800018
 11
574.104980
 21
415.360291
  0
LINE
  8
LC-006-012-----0
 62
     2
  6
CONTINUOUS
 10
574.104980
 20
415.360291
 11
576.765625
 21
414.672943
  0
LINE
  8
LC-006-012-----0
 62
     2
  6
CONTINUOUS
 10
576.765625
 20
414.672943
 11
578.962341
 21
414.011475
  0
LINE
  8
LC-006-012-----0
 62
     2
  6
CONTINUOUS
 10
578.962341
 20
414.011475
 11
579.876465
 21
413.715485
  0
LINE
  8
LC-003-002-----0
 62
     1
  6
CONTINUOUS
 10
601.876465
 20
563.510071
 11
517.876465
 21
563.510071
  0
LINE
  8
LC-003-002-----0
 62
     1
  6
CONTINUOUS
 10
505.876465
 20
551.510071
 11
505.876465
 21
473.510071
  0
LINE
  8
LC-003-002-----0
 62
     1
  6
CONTINUOUS
 10
613.876465
 20
473.510071
 11
613.876465
 21
551.510071
  0
LINE
  8
LC-003-002-----0
 62
     1
  6
CONTINUOUS
 10
505.876465
 20
473.510071
 11
613.876465
 21
473.510071
  0
LINE
  8
LC-003-002-----0
 62
     1
  6
CONTINUOUS
 10
517.876465
 20
563.510071
 11
505.876465
 21
551.510071
  0
LINE
  8
LC-003-002-----0
 62
     1
  6
CONTINUOUS
 10
613.876465
 20
551.510071
 11
601.876465
 21
563.510071
  0
LINE
  8
LC-008-003-----0
 62
     2
  6
DASHDOT
 10
526.680908
 20
518.510071
 11
593.270020
 21
518.510071
  0
LINE
  8
LC-008-003-----0
 62
     2
  6
DASHDOT
 10
559.876465
 20
484.951813
 11
559.876465
 21
551.510071
  0
CIRCLE
  8
LC-003-002-----0
 62
     1
  6
CONTINUOUS
 10
559.876465
 20
518.510071
 40
20.000000
  0
CIRCLE
  8
LC-003-002-----0
 62
     1
  6
CONTINUOUS
 10
559.876465
 20
518.510071
 40
31.000000
  0
LINE
  8
LC-008-003-----0
 62
     2
  6
DASHDOT
 10
516.876465
 20
468.848358
 11
516.876465
 21
564.807312
  0
LINE
  8
LC-008-003-----0
 62
     2
  6
DASHDOT
 10
602.876465
 20
468.848358
 11
602.876465
 21
564.807312
  0
LINE
  8
LC-004-006-----0
 62
     2
  6
DASHED
 10
522.126465
 20
473.510071
 11
522.126465
 21
553.510071
  0
LINE
  8
LC-004-006-----0
 62
     2
  6
DASHED
 10
511.626465
 20
473.510071
 11
511.626465
 21
553.510071
  0
LINE
  8
LC-004-006-----0
 62
     2
  6
DASHED
 10
608.126465
 20
473.510071
 11
608.126465
 21
553.510071
  0
LINE
  8
LC-004-006-----0
 62
     2
  6
DASHED
 10
597.626465
 20
473.510071
 11
597.626465
 21
553.510071
  0
LINE
  8
LC-004-006-----0
 62
     2
  6
DASHED
 10
525.876465
 20
553.510071
 11
507.876465
 21
553.510071
  0
LINE
  8
LC-004-006-----0
 62
     2
  6
DASHED
 10
525.876465
 20
553.510071
 11
525.876465
 21
563.510071
  0
LINE
  8
LC-004-006-----0
 62
     2
  6
DASHED
 10
593.876465
 20
553.510071
 11
611.876465
 21
553.510071
  0
LINE
  8
LC-004-006-----0
 62
     2
  6
DASHED
 10
593.876465
 20
553.510071
 11
593.876465
 21
563.510071
  0
LINE
  8
LC-003-002-----0
 62
     1
  6
CONTINUOUS
 10
505.876465
 20
394.394928
 11
505.876465
 21
303.394928
  0
LINE
  8
LC-003-002-----0
 62
     1
  6
CONTINUOUS
 10
505.876465
 20
394.394928
 11
613.876465
 21
394.394928
  0
LINE
  8
LC-003-002-----0
 62
     1
  6
CONTINUOUS
 10
693.670166
 20
553.510071
 11
693.670166
 21
563.510071
  0
LINE
  8
LC-003-002-----0
 62
     1
  6
CONTINUOUS
 10
505.876465
 20
303.394928
 11
613.876465
 21
303.394928
  0
LINE
  8
LC-003-002-----0
 62
     1
  6
CONTINUOUS
 10
686.170166
 20
473.510071
 11
777.170166
 21
473.510071
  0
LINE
  8
LC-003-002-----0
 62
     1
  6
CONTINUOUS
 10
686.170166
 20
563.510071
 11
686.170166
 21
473.510071
  0
LINE
  8
LC-003-002-----0
 62
     1
  6
CONTINUOUS
 10
686.170166
 20
563.510071
 11
777.170166
 21
563.510071
  0
LINE
  8
LC-003-002-----0
 62
     1
  6
CONTINUOUS
 10
777.170166
 20
563.510071
 11
777.170166
 21
473.510071
  0
LINE
  8
LC-008-003-----0
 62
     2
  6
DASHDOT
 10
559.876465
 20
418.649902
 11
559.876465
 21
275.289581
  0
LINE
  8
LC-003-002-----0
 62
     1
  6
CONTINUOUS
 10
579.876465
 20
413.715485
 11
579.876465
 21
394.394928
  0
LINE
  8
LC-003-002-----0
 62
     1
  6
CONTINUOUS
 10
539.876465
 20
413.715485
 11
539.876465
 21
394.394928
  0
LINE
  8
LC-004-006-----0
 62
     2
  6
DASHED
 10
539.876465
 20
394.394928
 11
539.876465
 21
303.394928
  0
LINE
  8
LC-003-002-----0
 62
     1
  6
CONTINUOUS
 10
539.876465
 20
303.394928
 11
539.876465
 21
284.610138
  0
LINE
  8
LC-004-006-----0
 62
     2
  6
DASHED
 10
579.876465
 20
394.394928
 11
579.876465
 21
303.394928
  0
LINE
  8
LC-003-002-----0
 62
     1
  6
CONTINUOUS
 10
579.876465
 20
303.394928
 11
579.876465
 21
285.158417
  0
LINE
  8
LC-008-003-----0
 62
     2
  6
DASHDOT
 10
516.876465
 20
387.973297
 11
516.876465
 21
366.825623
  0
LINE
  8
LC-003-002-----0
 62
     1
  6
CONTINUOUS
 10
613.876465
 20
394.394928
 11
613.876465
 21
303.394928
  0
LINE
  8
LC-008-003-----0
 62
     2
  6
DASHDOT
 10
662.183777
 20
518.510071
 11
799.063110
 21
518.510071
  0
LINE
  8
LC-003-002-----0
 62
     1
  6
CONTINUOUS
 10
686.170166
 20
551.510071
 11
777.170166
 21
551.510071
  0
LINE
  8
LC-003-002-----0
 62
     1
  6
CONTINUOUS
 10
796.490723
 20
498.510071
 11
777.170166
 21
498.510071
  0
LINE
  8
LC-003-002-----0
 62
     1
  6
CONTINUOUS
 10
796.490723
 20
538.510071
 11
777.170166
 21
538.510071
  0
LINE
  8
LC-004-006-----0
 62
     2
  6
DASHED
 10
777.170166
 20
538.510071
 11
686.170166
 21
538.510071
  0
LINE
  8
LC-003-002-----0
 62
     1
  6
CONTINUOUS
 10
686.170166
 20
538.510071
 11
667.385376
 21
538.510071
  0
LINE
  8
LC-004-006-----0
 62
     2
  6
DASHED
 10
777.170166
 20
498.510071
 11
686.170166
 21
498.510071
  0
LINE
  8
LC-003-002-----0
 62
     1
  6
CONTINUOUS
 10
686.170166
 20
498.510071
 11
667.933655
 21
498.510071
  0
LINE
  8
LC-004-006-----0
 62
     2
  6
DASHED
 10
528.876465
 20
394.394928
 11
528.876465
 21
303.394928
  0
LINE
  8
LC-004-006-----0
 62
     2
  6
DASHED
 10
590.876465
 20
394.394928
 11
590.876465
 21
303.394928
  0
LINE
  8
LC-008-003-----0
 62
     2
  6
DASHDOT
 10
504.305664
 20
377.894928
 11
526.537598
 21
377.894928
  0
LINE
  8
LC-008-003-----0
 62
     2
  6
DASHDOT
 10
504.305664
 20
319.894928
 11
526.537598
 21
319.894928
  0
LINE
  8
LC-003-002-----0
 62
     1
  6
CONTINUOUS
 10
751.670166
 20
553.510071
 11
751.670166
 21
563.510071
  0
CIRCLE
  8
LC-003-002-----0
 62
     1
  6
CONTINUOUS
 10
516.876465
 20
377.894928
 40
5.250000
  0
CIRCLE
  8
LC-003-002-----0
 62
     1
  6
CONTINUOUS
 10
516.876465
 20
319.894928
 40
5.250000
  0
LINE
  8
LC-008-003-----0
 62
     2
  6
DASHDOT
 10
602.876465
 20
388.119141
 11
602.876465
 21
367.846527
  0
LINE
  8
LC-008-003-----0
 62
     2
  6
DASHDOT
 10
615.447266
 20
377.894928
 11
593.215332
 21
377.894928
  0
ARC
  8
LC-003-002-----0
 62
     1
  6
CONTINUOUS
 10
516.876465
 20
377.894928
 40
9.000000
 50
269.999997
 51
90.000003
  0
ARC
  8
LC-003-002-----0
 62
     1
  6
CONTINUOUS
 10
516.876465
 20
319.894928
 40
9.000000
 50
269.999997
 51
90.000003
  0
LINE
  8
LC-003-002-----0
 62
     1
  6
CONTINUOUS
 10
516.876465
 20
368.894928
 11
505.876465
 21
368.894928
  0
LINE
  8
LC-003-002-----0
 62
     1
  6
CONTINUOUS
 10
516.876465
 20
386.894928
 11
505.876465
 21
386.894928
  0
LINE
  8
LC-003-002-----0
 62
     1
  6
CONTINUOUS
 10
516.876465
 20
328.894928
 11
505.876465
 21
328.894928
  0
LINE
  8
LC-003-002-----0
 62
     1
  6
CONTINUOUS
 10
516.876465
 20
310.894928
 11
505.876465
 21
310.894928
  0
LINE
  8
LC-003-002-----0
 62
     1
  6
CONTINUOUS
 10
601.876465
 20
394.394928
 11
601.876465
 21
386.839203
  0
LINE
  8
LC-008-003-----0
 62
     2
  6
DASHDOT
 10
615.447266
 20
319.894928
 11
593.215332
 21
319.894928
  0
CIRCLE
  8
LC-003-002-----0
 62
     1
  6
CONTINUOUS
 10
602.876465
 20
377.894928
 40
5.250000
  0
CIRCLE
  8
LC-003-002-----0
 62
     1
  6
CONTINUOUS
 10
602.876465
 20
319.894928
 40
5.250000
  0
ARC
  8
LC-003-002-----0
 62
     1
  6
CONTINUOUS
 10
602.876465
 20
377.894928
 40
9.000000
 50
90.000003
 51
269.999997
  0
ARC
  8
LC-003-002-----0
 62
     1
  6
CONTINUOUS
 10
602.876465
 20
319.894928
 40
9.000000
 50
90.000003
 51
269.999997
  0
LINE
  8
LC-003-002-----0
 62
     1
  6
CONTINUOUS
 10
602.876465
 20
368.894928
 11
613.876465
 21
368.894928
  0
LINE
  8
LC-003-002-----0
 62
     1
  6
CONTINUOUS
 10
602.876465
 20
386.894928
 11
613.876465
 21
386.894928
  0
LINE
  8
LC-003-002-----0
 62
     1
  6
CONTINUOUS
 10
602.876465
 20
328.894928
 11
613.876465
 21
328.894928
  0
LINE
  8
LC-003-002-----0
 62
     1
  6
CONTINUOUS
 10
602.876465
 20
310.894928
 11
613.876465
 21
310.894928
  0
LINE
  8
LC-003-002-----0
 62
     1
  6
CONTINUOUS
 10
601.876465
 20
368.950653
 11
601.876465
 21
328.839203
  0
LINE
  8
LC-003-002-----0
 62
     1
  6
CONTINUOUS
 10
601.876465
 20
310.950653
 11
601.876465
 21
303.394928
  0
LINE
  8
LC-003-002-----0
 62
     1
  6
CONTINUOUS
 10
517.876465
 20
368.950653
 11
517.876465
 21
328.839203
  0
LINE
  8
LC-008-003-----0
 62
     2
  6
DASHDOT
 10
702.670166
 20
469.996002
 11
702.670166
 21
566.115479
  0
LINE
  8
LC-004-006-----0
 62
     2
  6
DASHED
 10
707.920166
 20
473.510071
 11
707.920166
 21
553.510071
  0
LINE
  8
LC-004-006-----0
 62
     2
  6
DASHED
 10
697.420166
 20
473.510071
 11
697.420166
 21
553.510071
  0
LINE
  8
LC-003-002-----0
 62
     1
  6
CONTINUOUS
 10
711.670166
 20
553.510071
 11
693.670166
 21
553.510071
  0
LINE
  8
LC-003-002-----0
 62
     1
  6
CONTINUOUS
 10
711.670166
 20
553.510071
 11
711.670166
 21
563.510071
  0
LINE
  8
LC-008-003-----0
 62
     2
  6
DASHDOT
 10
760.670166
 20
469.996002
 11
760.670166
 21
566.115479
  0
LINE
  8
LC-004-006-----0
 62
     2
  6
DASHED
 10
765.920166
 20
473.510071
 11
765.920166
 21
553.510071
  0
LINE
  8
LC-004-006-----0
 62
     2
  6
DASHED
 10
755.420166
 20
473.510071
 11
755.420166
 21
553.510071
  0
LINE
  8
LC-003-002-----0
 62
     1
  6
CONTINUOUS
 10
769.670166
 20
553.510071
 11
751.670166
 21
553.510071
  0
LINE
  8
LC-003-002-----0
 62
     1
  6
CONTINUOUS
 10
769.670166
 20
553.510071
 11
769.670166
 21
563.510071
  0
LINE
  8
LC-008-003-----0
 62
     2
  6
DASHDOT
 10
516.876465
 20
330.801636
 11
516.876465
 21
309.216431
  0
LINE
  8
LC-008-003-----0
 62
     2
  6
DASHDOT
 10
602.876465
 20
330.509949
 11
602.876465
 21
308.778870
  0
LINE
  8
LC-004-006-----0
 62
     2
  6
DASHED
 10
686.170166
 20
549.510071
 11
777.170166
 21
549.510071
  0
LINE
  8
LC-004-006-----0
 62
     2
  6
DASHED
 10
686.170166
 20
487.510071
 11
777.170166
 21
487.510071
  0
LINE
  8
LC-004-006-----0
 62
     2
  6
DASHED
 10
505.876465
 20
499.510071
 11
505.876465
 21
499.510071
  0
LINE
  8
LC-004-006-----0
 62
     2
  6
DASHED
 10
522.876465
 20
473.510071
 11
522.876465
 21
499.510071
  0
LINE
  8
LC-004-006-----0
 62
     2
  6
DASHED
 10
510.876465
 20
473.510071
 11
510.876465
 21
499.510071
  0
LINE
  8
LC-004-006-----0
 62
     2
  6
DASHED
 10
608.876465
 20
473.510071
 11
608.876465
 21
499.510071
  0
LINE
  8
LC-004-006-----0
 62
     2
  6
DASHED
 10
596.876465
 20
473.510071
 11
596.876465
 21
499.510071
  0
LINE
  8
LC-004-006-----0
 62
     2
  6
DASHED
 10
613.876465
 20
499.510071
 11
613.876465
 21
499.510071
  0
LINE
  8
LC-004-006-----0
 62
     2
  6
DASHED
 10
596.876465
 20
499.510071
 11
608.876465
 21
499.510071
  0
CIRCLE
  8
LC-003-002-----0
 62
     1
  6
CONTINUOUS
 10
559.876465
 20
518.510071
 40
21.000000
  0
LINE
  8
LC-004-006-----0
 62
     2
  6
DASHED
 10
510.876465
 20
499.510071
 11
522.876465
 21
499.510071
  0
LINE
  8
LC-004-006-----0
 62
     2
  6
DASHED
 10
708.670166
 20
473.510071
 11
708.670166
 21
499.510071
  0
LINE
  8
LC-004-006-----0
 62
     2
  6
DASHED
 10
696.670166
 20
473.510071
 11
696.670166
 21
499.510071
  0
LINE
  8
LC-004-006-----0
 62
     2
  6
DASHED
 10
696.670166
 20
499.510071
 11
708.670166
 21
499.510071
  0
ARC
  8
LC-006-012-----0
 62
     2
  6
CONTINUOUS
 10
516.876465
 20
377.894928
 40
6.000000
 50
172.305087
 51
98.113407
  0
LINE
  8
LC-004-006-----0
 62
     2
  6
DASHED
 10
766.670166
 20
473.510071
 11
766.670166
 21
499.510071
  0
LINE
  8
LC-004-006-----0
 62
     2
  6
DASHED
 10
754.670166
 20
473.510071
 11
754.670166
 21
499.510071
  0
LINE
  8
LC-004-006-----0
 62
     2
  6
DASHED
 10
754.670166
 20
499.510071
 11
766.670166
 21
499.510071
  0
ARC
  8
LC-006-012-----0
 62
     2
  6
CONTINUOUS
 10
602.876465
 20
377.894928
 40
6.000000
 50
81.886592
 51
7.694911
  0
ARC
  8
LC-006-012-----0
 62
     2
  6
CONTINUOUS
 10
602.876465
 20
319.894928
 40
6.000000
 50
81.886592
 51
7.694911
  0
ARC
  8
LC-006-012-----0
 62
     2
  6
CONTINUOUS
 10
516.876465
 20
319.894928
 40
6.000000
 50
172.305087
 51
98.113407
  0
LINE
  8
LC-003-002-----0
 62
     1
  6
CONTINUOUS
 10
517.876465
 20
310.950653
 11
517.876465
 21
303.394928
  0
LINE
  8
LC-003-002-----0
 62
     1
  6
CONTINUOUS
 10
517.876465
 20
394.394928
 11
517.876465
 21
386.839203
  0
ENDSEC
  0
EOF
