  0
SECTION
  2
HEADER
  9
$LIMMIN
 10
-80.925049
 20
485.143280
  9
$LIMMAX
 10
55.503559
 20
640.988831
  9
$EXTMIN
 10
-80.925049
 20
485.143280
  9
$EXTMAX
 10
55.503559
 20
640.988831
  0
ENDSEC
  0
SECTION
  2
TABLES
  0
TABLE
  2
LTYPE
 70
     3
  0
LTYPE
  2
CONTINUOUS
 70
    64
  3
Ausgezogene Linie
 72
    65
 73
     0
 40
0.0
  0
LTYPE
  2
DASHED
 70
    64
  3
__ __ __ __ __ __ __ __ __ __ __ __ __ __ __
 72
    65
 73
     2
 40
0.75
 49
0.5
 49
-0.25
  0
LTYPE
  2
DASHDOT
 70
    64
  3
__ . __ . __ . __ . __ . __ . __ . __ . __ . __
 72
    65
 73
     4
 40
1.0
 49
0.5
 49
-0.25
 49
0.0
 49
-0.25
  0
ENDTAB
  0
TABLE
  2
LAYER
 70
     5
  0
LAYER
  2
LC-INFO-1-1-MM-A0-0
 70
    64
 62
     7
  6
CONTINUOUS
  0
LAYER
  2
LC-003-002-----0
 70
    64
 62
     7
  6
CONTINUOUS
  0
LAYER
  2
LC-004-006-----0
 70
    64
 62
     7
  6
CONTINUOUS
  0
LAYER
  2
LC-006-012-----0
 70
    64
 62
     7
  6
CONTINUOUS
  0
LAYER
  2
LC-008-003-----0
 70
    64
 62
     7
  6
CONTINUOUS
  0
ENDTAB
  0
TABLE
  2
STYLE
 70
     1
  0
STYLE
  2
TXT8
 70
    64
 40
0.0
 41
1.0
 50
0.0
 71
     0
 42
3.500000
  3
TXT8
  4

  0
ENDTAB
  0
ENDSEC
  0
SECTION
  2
BLOCKS
  0
ENDSEC
  0
SECTION
  2
ENTITIES
  0
ARC
  8
LC-006-012-----0
 62
     2
  6
DASHED
 10
23.100355
 20
624.408081
 40
6.586702
 50
0.000000
 51
29.797294
  0
ARC
  8
LC-006-012-----0
 62
     2
  6
DASHED
 10
23.153591
 20
624.440063
 40
6.524623
 50
29.786066
 51
59.785267
  0
ARC
  8
LC-006-012-----0
 62
     2
  6
DASHED
 10
23.185789
 20
624.492920
 40
6.462758
 50
59.796196
 51
89.988767
  0
ARC
  8
LC-006-012-----0
 62
     2
  6
DASHED
 10
23.188324
 20
624.492920
 40
6.462758
 50
90.011231
 51
120.203803
  0
ARC
  8
LC-006-012-----0
 62
     2
  6
DASHED
 10
23.220524
 20
624.440063
 40
6.524623
 50
120.214731
 51
150.213933
  0
ARC
  8
LC-006-012-----0
 62
     2
  6
DASHED
 10
23.273760
 20
624.408081
 40
6.586702
 50
150.202704
 51
180.010937
  0
ARC
  8
LC-006-012-----0
 62
     2
  6
DASHED
 10
23.273760
 20
624.405579
 40
6.586702
 50
179.989063
 51
209.797296
  0
ARC
  8
LC-006-012-----0
 62
     2
  6
DASHED
 10
23.220524
 20
624.373657
 40
6.524623
 50
209.786067
 51
239.785269
  0
ARC
  8
LC-006-012-----0
 62
     2
  6
DASHED
 10
23.188324
 20
624.320801
 40
6.462758
 50
239.796197
 51
269.988769
  0
ARC
  8
LC-006-012-----0
 62
     2
  6
DASHED
 10
23.185789
 20
624.320801
 40
6.462758
 50
270.011233
 51
300.203804
  0
ARC
  8
LC-006-012-----0
 62
     2
  6
DASHED
 10
23.153591
 20
624.373657
 40
6.524623
 50
300.214733
 51
330.213934
  0
ARC
  8
LC-006-012-----0
 62
     2
  6
DASHED
 10
23.100355
 20
624.405579
 40
6.586702
 50
330.202706
 51
0.000000
  0
LINE
  8
LC-003-002-----0
 62
     1
  6
CONTINUOUS
 10
-80.336800
 20
608.985291
 11
-80.336800
 21
635.985291
  0
LINE
  8
LC-003-002-----0
 62
     1
  6
CONTINUOUS
 10
-80.336800
 20
608.985291
 11
-38.336807
 21
608.985291
  0
LINE
  8
LC-003-002-----0
 62
     1
  6
CONTINUOUS
 10
-77.336800
 20
638.985291
 11
-69.054207
 21
638.985291
  0
LINE
  8
LC-003-002-----0
 62
     1
  6
CONTINUOUS
 10
-38.336803
 20
635.985291
 11
-38.336803
 21
608.985291
  0
LINE
  8
LC-004-006-----0
 62
     2
  6
DASHDOT
 10
-59.336803
 20
607.556885
 11
-59.336803
 21
640.988831
  0
LINE
  8
LC-004-006-----0
 62
     2
  6
DASHDOT
 10
-72.254486
 20
626.985291
 11
-46.441265
 21
626.985291
  0
CIRCLE
  8
LC-003-002-----0
 62
     1
  6
CONTINUOUS
 10
-59.336803
 20
626.985291
 40
6.000000
  0
ARC
  8
LC-003-002-----0
 62
     1
  6
CONTINUOUS
 10
-59.336803
 20
626.985291
 40
11.500000
 50
128.999993
 51
51.000001
  0
ARC
  8
LC-003-002-----0
 62
     1
  6
CONTINUOUS
 10
-59.336803
 20
626.985291
 40
10.000000
 50
128.999993
 51
51.000001
  0
LINE
  8
LC-003-002-----0
 62
     1
  6
CONTINUOUS
 10
-55.560879
 20
631.648193
 11
-52.099617
 21
635.922485
  0
LINE
  8
LC-003-002-----0
 62
     1
  6
CONTINUOUS
 10
-49.619392
 20
638.985291
 11
-41.336803
 21
638.985291
  0
LINE
  8
LC-003-002-----0
 62
     1
  6
CONTINUOUS
 10
-63.112724
 20
631.648193
 11
-66.573982
 21
635.922485
  0
LINE
  8
LC-004-006-----0
 62
     2
  6
DASHDOT
 10
-43.336803
 20
607.556885
 11
-43.336803
 21
640.988831
  0
LINE
  8
LC-006-012-----0
 62
     2
  6
DASHED
 10
-40.836803
 20
608.985291
 11
-40.836803
 21
619.985291
  0
LINE
  8
LC-006-012-----0
 62
     2
  6
DASHED
 10
-45.836803
 20
608.985291
 11
-45.836803
 21
619.985291
  0
LINE
  8
LC-006-012-----0
 62
     2
  6
DASHED
 10
-41.336803
 20
608.985291
 11
-41.336803
 21
619.985291
  0
LINE
  8
LC-006-012-----0
 62
     2
  6
DASHED
 10
-45.336803
 20
608.985291
 11
-45.336803
 21
619.985291
  0
LINE
  8
LC-006-012-----0
 62
     2
  6
DASHED
 10
-45.836803
 20
619.985291
 11
-40.836803
 21
619.985291
  0
LINE
  8
LC-006-012-----0
 62
     2
  6
DASHED
 10
-41.186802
 20
619.985291
 11
-41.186802
 21
634.985291
  0
LINE
  8
LC-006-012-----0
 62
     2
  6
DASHED
 10
-45.486801
 20
619.985291
 11
-45.486801
 21
634.985291
  0
LINE
  8
LC-006-012-----0
 62
     2
  6
DASHED
 10
-47.336803
 20
634.985291
 11
-38.336803
 21
634.985291
  0
LINE
  8
LC-004-006-----0
 62
     2
  6
DASHDOT
 10
-75.336800
 20
607.556885
 11
-75.336800
 21
640.988831
  0
LINE
  8
LC-006-012-----0
 62
     2
  6
DASHED
 10
-47.336803
 20
634.985291
 11
-47.336803
 21
638.985291
  0
LINE
  8
LC-003-002-----0
 62
     1
  6
CONTINUOUS
 10
3.687057
 20
635.985291
 11
7.687057
 21
635.985291
  0
LINE
  8
LC-003-002-----0
 62
     1
  6
CONTINUOUS
 10
15.687057
 20
635.985291
 11
30.687057
 21
635.985291
  0
LINE
  8
LC-006-012-----0
 62
     2
  6
DASHED
 10
-77.836800
 20
608.985291
 11
-77.836800
 21
619.985291
  0
LINE
  8
LC-006-012-----0
 62
     2
  6
DASHED
 10
-72.836800
 20
608.985291
 11
-72.836800
 21
619.985291
  0
LINE
  8
LC-006-012-----0
 62
     2
  6
DASHED
 10
-77.336800
 20
608.985291
 11
-77.336800
 21
619.985291
  0
LINE
  8
LC-006-012-----0
 62
     2
  6
DASHED
 10
-73.336800
 20
608.985291
 11
-73.336800
 21
619.985291
  0
LINE
  8
LC-006-012-----0
 62
     2
  6
DASHED
 10
-72.836800
 20
619.985291
 11
-77.836800
 21
619.985291
  0
LINE
  8
LC-006-012-----0
 62
     2
  6
DASHED
 10
-77.486801
 20
619.985291
 11
-77.486801
 21
634.985291
  0
LINE
  8
LC-006-012-----0
 62
     2
  6
DASHED
 10
-73.186806
 20
619.985291
 11
-73.186806
 21
634.985291
  0
LINE
  8
LC-006-012-----0
 62
     2
  6
DASHED
 10
-71.336800
 20
634.985291
 11
-71.336800
 21
638.985291
  0
LINE
  8
LC-006-012-----0
 62
     2
  6
DASHED
 10
-71.336800
 20
634.985291
 11
-80.336800
 21
634.985291
  0
LINE
  8
LC-003-002-----0
 62
     1
  6
CONTINUOUS
 10
-80.336800
 20
635.985291
 11
-77.336800
 21
638.985291
  0
LINE
  8
LC-006-012-----0
 62
     2
  6
DASHED
 10
-40.675049
 20
618.145142
 11
-38.336803
 21
617.858032
  0
LINE
  8
LC-006-012-----0
 62
     2
  6
DASHED
 10
-40.622910
 20
622.672546
 11
-46.081913
 21
623.342834
  0
LINE
  8
LC-006-012-----0
 62
     2
  6
DASHED
 10
-40.135429
 20
626.642700
 11
-45.594437
 21
627.312988
  0
LINE
  8
LC-006-012-----0
 62
     2
  6
DASHED
 10
-45.894711
 20
622.816040
 11
-40.683846
 21
622.176270
  0
LINE
  8
LC-006-012-----0
 62
     2
  6
DASHED
 10
-40.074497
 20
627.138977
 11
-45.285362
 21
627.778809
  0
LINE
  8
LC-006-012-----0
 62
     2
  6
DASHED
 10
-37.587036
 20
626.883911
 11
-38.208572
 21
621.821960
  0
LINE
  8
LC-006-012-----0
 62
     2
  6
DASHED
 10
-48.732262
 20
627.194519
 11
-49.097870
 21
624.216858
  0
LINE
  8
LC-006-012-----0
 62
     2
  6
DASHED
 10
-46.112381
 20
623.094666
 11
-45.894711
 21
622.816040
  0
LINE
  8
LC-006-012-----0
 62
     2
  6
DASHED
 10
-45.285362
 20
627.778809
 11
-45.563969
 21
627.561096
  0
LINE
  8
LC-006-012-----0
 62
     2
  6
DASHED
 10
-45.285362
 20
627.778809
 11
-45.894711
 21
622.816040
  0
LINE
  8
LC-006-012-----0
 62
     2
  6
DASHED
 10
-39.090748
 20
631.048218
 11
-40.675049
 21
618.145142
  0
LINE
  8
LC-006-012-----0
 62
     2
  6
DASHED
 10
-38.445797
 20
621.095459
 11
-40.285065
 21
621.321289
  0
LINE
  8
LC-006-012-----0
 62
     2
  6
DASHED
 10
-37.641460
 20
627.646240
 11
-39.480728
 21
627.872070
  0
LINE
  8
LC-006-012-----0
 62
     2
  6
DASHED
 10
-38.262993
 20
622.584290
 11
-40.102261
 21
622.810120
  0
LINE
  8
LC-006-012-----0
 62
     2
  6
DASHED
 10
-37.824265
 20
626.157410
 11
-39.663532
 21
626.383240
  0
LINE
  8
LC-006-012-----0
 62
     2
  6
DASHED
 10
-45.563969
 20
627.561096
 11
-46.112381
 21
623.094666
  0
ARC
  8
LC-006-012-----0
 62
     2
  6
DASHED
 10
-48.915066
 20
625.705688
 40
11.100000
 50
343.667582
 51
2.332418
  0
ARC
  8
LC-006-012-----0
 62
     2
  6
DASHED
 10
-39.572128
 20
627.127686
 40
1.999103
 50
330.965286
 51
15.034715
  0
LINE
  8
LC-006-012-----0
 62
     2
  6
DASHED
 10
-46.051445
 20
623.590942
 11
-48.880203
 21
623.938293
  0
ARC
  8
LC-006-012-----0
 62
     2
  6
DASHED
 10
-40.193665
 20
622.065674
 40
1.999103
 50
330.965286
 51
15.034715
  0
LINE
  8
LC-006-012-----0
 62
     2
  6
DASHED
 10
-40.074497
 20
627.138977
 11
-40.683846
 21
622.176270
  0
LINE
  8
LC-006-012-----0
 62
     2
  6
DASHED
 10
-40.151009
 20
622.413086
 11
-40.647282
 21
622.473999
  0
LINE
  8
LC-006-012-----0
 62
     2
  6
DASHED
 10
-39.614784
 20
626.780273
 11
-40.111057
 21
626.841187
  0
LINE
  8
LC-006-012-----0
 62
     2
  6
DASHED
 10
-45.624905
 20
627.064880
 11
-48.453659
 21
627.412170
  0
ARC
  8
LC-006-012-----0
 62
     2
  6
DASHED
 10
-48.849735
 20
624.186401
 40
0.250000
 50
173.000004
 51
263.000003
  0
ARC
  8
LC-006-012-----0
 62
     2
  6
DASHED
 10
-48.484127
 20
627.164063
 40
0.250000
 50
83.000001
 51
173.000004
  0
LINE
  8
LC-006-012-----0
 62
     2
  6
DASHED
 10
-39.090748
 20
631.048218
 11
-38.336803
 21
630.955688
  0
LINE
  8
LC-003-002-----0
 62
     1
  6
CONTINUOUS
 10
-80.336800
 20
540.450745
 11
-80.336800
 21
501.450806
  0
LINE
  8
LC-003-002-----0
 62
     1
  6
CONTINUOUS
 10
-80.336800
 20
501.450775
 11
-38.336807
 21
501.450775
  0
LINE
  8
LC-003-002-----0
 62
     1
  6
CONTINUOUS
 10
-38.336803
 20
540.450745
 11
-38.336803
 21
501.450806
  0
LINE
  8
LC-003-002-----0
 62
     1
  6
CONTINUOUS
 10
-80.336800
 20
540.450745
 11
-38.336807
 21
540.450745
  0
LINE
  8
LC-003-002-----0
 62
     1
  6
CONTINUOUS
 10
-69.054207
 20
540.450745
 11
-69.054207
 21
501.450806
  0
LINE
  8
LC-003-002-----0
 62
     1
  6
CONTINUOUS
 10
-66.573982
 20
540.450745
 11
-66.573982
 21
501.450806
  0
LINE
  8
LC-004-006-----0
 62
     2
  6
DASHDOT
 10
-59.336803
 20
554.261597
 11
-59.336803
 21
485.143280
  0
LINE
  8
LC-003-002-----0
 62
     1
  6
CONTINUOUS
 10
-63.112724
 20
540.450745
 11
-63.112724
 21
501.450806
  0
LINE
  8
LC-003-002-----0
 62
     1
  6
CONTINUOUS
 10
-49.619392
 20
540.450745
 11
-49.619392
 21
501.450806
  0
LINE
  8
LC-003-002-----0
 62
     1
  6
CONTINUOUS
 10
-52.099617
 20
540.450745
 11
-52.099617
 21
501.450806
  0
LINE
  8
LC-003-002-----0
 62
     1
  6
CONTINUOUS
 10
-55.560879
 20
540.450745
 11
-55.560879
 21
501.450806
  0
LINE
  8
LC-003-002-----0
 62
     1
  6
CONTINUOUS
 10
-77.336800
 20
540.450745
 11
-77.336800
 21
536.450745
  0
LINE
  8
LC-006-012-----0
 62
     2
  6
DASHED
 10
-70.836800
 20
540.450745
 11
-70.836800
 21
501.450806
  0
LINE
  8
LC-004-006-----0
 62
     2
  6
DASHDOT
 10
-70.326118
 20
532.450745
 11
-80.925049
 21
532.450745
  0
ARC
  8
LC-003-002-----0
 62
     1
  6
CONTINUOUS
 10
-75.336800
 20
532.450745
 40
4.000000
 50
269.999997
 51
90.000003
  0
ARC
  8
LC-008-003-----0
 62
     2
  6
CONTINUOUS
 10
-75.336800
 20
532.450745
 40
2.500000
 50
83.003696
 51
10.034962
  0
CIRCLE
  8
LC-003-002-----0
 62
     1
  6
CONTINUOUS
 10
-75.336800
 20
532.450745
 40
2.000000
  0
LINE
  8
LC-003-002-----0
 62
     1
  6
CONTINUOUS
 10
-77.336800
 20
505.450775
 11
-77.336800
 21
501.450775
  0
LINE
  8
LC-004-006-----0
 62
     2
  6
DASHDOT
 10
-75.336800
 20
537.729919
 11
-75.336800
 21
526.665100
  0
LINE
  8
LC-003-002-----0
 62
     1
  6
CONTINUOUS
 10
-75.336800
 20
528.450745
 11
-80.336800
 21
528.450745
  0
LINE
  8
LC-003-002-----0
 62
     1
  6
CONTINUOUS
 10
-75.336800
 20
536.450745
 11
-80.336800
 21
536.450745
  0
LINE
  8
LC-004-006-----0
 62
     2
  6
DASHDOT
 10
-70.326118
 20
509.450775
 11
-80.925049
 21
509.450775
  0
ARC
  8
LC-003-002-----0
 62
     1
  6
CONTINUOUS
 10
-75.336800
 20
509.450775
 40
4.000000
 50
269.999997
 51
90.000003
  0
ARC
  8
LC-008-003-----0
 62
     2
  6
CONTINUOUS
 10
-75.336800
 20
509.450775
 40
2.500000
 50
349.965038
 51
276.996304
  0
CIRCLE
  8
LC-003-002-----0
 62
     1
  6
CONTINUOUS
 10
-75.336800
 20
509.450775
 40
2.000000
  0
LINE
  8
LC-004-006-----0
 62
     2
  6
DASHDOT
 10
-75.336800
 20
504.206879
 11
-75.336800
 21
515.236450
  0
LINE
  8
LC-003-002-----0
 62
     1
  6
CONTINUOUS
 10
-75.336800
 20
513.450745
 11
-80.336800
 21
513.450745
  0
LINE
  8
LC-003-002-----0
 62
     1
  6
CONTINUOUS
 10
-75.336800
 20
505.450775
 11
-80.336800
 21
505.450775
  0
LINE
  8
LC-003-002-----0
 62
     1
  6
CONTINUOUS
 10
-77.336800
 20
528.450745
 11
-77.336800
 21
513.450745
  0
LINE
  8
LC-004-006-----0
 62
     2
  6
DASHDOT
 10
-48.347488
 20
532.450745
 11
-37.748550
 21
532.450745
  0
ARC
  8
LC-003-002-----0
 62
     1
  6
CONTINUOUS
 10
-43.336803
 20
532.450745
 40
4.000000
 50
90.000003
 51
269.999997
  0
ARC
  8
LC-008-003-----0
 62
     2
  6
CONTINUOUS
 10
-43.336803
 20
532.450745
 40
2.500000
 50
169.965036
 51
96.996302
  0
CIRCLE
  8
LC-003-002-----0
 62
     1
  6
CONTINUOUS
 10
-43.336803
 20
532.450745
 40
2.000000
  0
LINE
  8
LC-003-002-----0
 62
     1
  6
CONTINUOUS
 10
-41.336803
 20
540.450745
 11
-41.336803
 21
536.450745
  0
LINE
  8
LC-004-006-----0
 62
     2
  6
DASHDOT
 10
-43.336803
 20
537.729919
 11
-43.336803
 21
526.665100
  0
LINE
  8
LC-003-002-----0
 62
     1
  6
CONTINUOUS
 10
-43.336803
 20
528.450745
 11
-38.336803
 21
528.450745
  0
LINE
  8
LC-003-002-----0
 62
     1
  6
CONTINUOUS
 10
-43.336803
 20
536.450745
 11
-38.336803
 21
536.450745
  0
LINE
  8
LC-004-006-----0
 62
     2
  6
DASHDOT
 10
-48.347488
 20
509.450775
 11
-37.748550
 21
509.450775
  0
ARC
  8
LC-003-002-----0
 62
     1
  6
CONTINUOUS
 10
-43.336803
 20
509.450775
 40
4.000000
 50
90.000003
 51
269.999997
  0
ARC
  8
LC-008-003-----0
 62
     2
  6
CONTINUOUS
 10
-43.336803
 20
509.450775
 40
2.500000
 50
263.003698
 51
190.034964
  0
CIRCLE
  8
LC-003-002-----0
 62
     1
  6
CONTINUOUS
 10
-43.336803
 20
509.450775
 40
2.000000
  0
LINE
  8
LC-004-006-----0
 62
     2
  6
DASHDOT
 10
-43.336803
 20
504.206879
 11
-43.336803
 21
515.236450
  0
LINE
  8
LC-003-002-----0
 62
     1
  6
CONTINUOUS
 10
-43.336803
 20
513.450745
 11
-38.336803
 21
513.450745
  0
LINE
  8
LC-003-002-----0
 62
     1
  6
CONTINUOUS
 10
-43.336803
 20
505.450775
 11
-38.336803
 21
505.450775
  0
LINE
  8
LC-003-002-----0
 62
     1
  6
CONTINUOUS
 10
-41.336803
 20
528.450745
 11
-41.336803
 21
513.450745
  0
LINE
  8
LC-003-002-----0
 62
     1
  6
CONTINUOUS
 10
-41.336803
 20
505.450775
 11
-41.336803
 21
501.450775
  0
LINE
  8
LC-006-012-----0
 62
     2
  6
DASHED
 10
-47.836803
 20
540.450745
 11
-47.836803
 21
501.450806
  0
LINE
  8
LC-003-002-----0
 62
     1
  6
CONTINUOUS
 10
-65.336800
 20
551.386902
 11
-65.336800
 21
540.450745
  0
LINE
  8
LC-003-002-----0
 62
     1
  6
CONTINUOUS
 10
-53.336803
 20
551.532349
 11
-53.336803
 21
540.450745
  0
LINE
  8
LC-008-003-----0
 62
     2
  6
CONTINUOUS
 10
-65.336800
 20
551.386902
 11
-62.031826
 21
550.862366
  0
LINE
  8
LC-008-003-----0
 62
     2
  6
CONTINUOUS
 10
-62.031822
 20
550.862366
 11
-55.519310
 21
551.806580
  0
LINE
  8
LC-008-003-----0
 62
     2
  6
CONTINUOUS
 10
-55.519310
 20
551.806580
 11
-53.336803
 21
551.532349
  0
LINE
  8
LC-008-003-----0
 62
     2
  6
CONTINUOUS
 10
-65.336800
 20
488.325653
 11
-61.781345
 21
487.976013
  0
LINE
  8
LC-008-003-----0
 62
     2
  6
CONTINUOUS
 10
-61.781342
 20
487.976013
 11
-56.270756
 21
488.731415
  0
LINE
  8
LC-008-003-----0
 62
     2
  6
CONTINUOUS
 10
-56.270756
 20
488.731415
 11
-53.336803
 21
488.050781
  0
LINE
  8
LC-006-012-----0
 62
     2
  6
DASHED
 10
-65.336800
 20
540.450745
 11
-65.336800
 21
501.450806
  0
LINE
  8
LC-003-002-----0
 62
     1
  6
CONTINUOUS
 10
-65.336800
 20
501.450775
 11
-65.336800
 21
488.325653
  0
LINE
  8
LC-006-012-----0
 62
     2
  6
DASHED
 10
-53.336803
 20
540.450745
 11
-53.336803
 21
501.450806
  0
LINE
  8
LC-003-002-----0
 62
     1
  6
CONTINUOUS
 10
-53.336803
 20
501.450775
 11
-53.336803
 21
488.050781
  0
LINE
  8
LC-004-006-----0
 62
     2
  6
DASHDOT
 10
-51.101303
 20
520.950745
 11
-35.656487
 21
520.950745
  0
LINE
  8
LC-006-012-----0
 62
     2
  6
DASHED
 10
-39.736801
 20
527.450745
 11
-38.336803
 21
527.450745
  0
LINE
  8
LC-006-012-----0
 62
     2
  6
DASHED
 10
-40.236801
 20
522.950745
 11
-45.736801
 21
522.950745
  0
LINE
  8
LC-006-012-----0
 62
     2
  6
DASHED
 10
-40.236801
 20
518.950745
 11
-45.736801
 21
518.950745
  0
LINE
  8
LC-006-012-----0
 62
     2
  6
DASHED
 10
-45.486801
 20
523.450745
 11
-40.236801
 21
523.450745
  0
LINE
  8
LC-006-012-----0
 62
     2
  6
DASHED
 10
-40.236801
 20
518.450745
 11
-45.486801
 21
518.450745
  0
LINE
  8
LC-006-012-----0
 62
     2
  6
DASHED
 10
-37.736801
 20
518.400757
 11
-37.736801
 21
523.500793
  0
LINE
  8
LC-006-012-----0
 62
     2
  6
DASHED
 10
-48.836803
 20
519.450745
 11
-48.836803
 21
522.450745
  0
LINE
  8
LC-006-012-----0
 62
     2
  6
DASHED
 10
-45.736801
 20
523.200745
 11
-45.486801
 21
523.450745
  0
LINE
  8
LC-006-012-----0
 62
     2
  6
DASHED
 10
-45.486801
 20
518.450745
 11
-45.736801
 21
518.700745
  0
LINE
  8
LC-006-012-----0
 62
     2
  6
DASHED
 10
-45.486801
 20
518.450745
 11
-45.486801
 21
523.450745
  0
LINE
  8
LC-006-012-----0
 62
     2
  6
DASHED
 10
-39.736801
 20
514.450745
 11
-39.736801
 21
527.450745
  0
LINE
  8
LC-006-012-----0
 62
     2
  6
DASHED
 10
-37.883720
 20
524.250793
 11
-39.736801
 21
524.250793
  0
LINE
  8
LC-006-012-----0
 62
     2
  6
DASHED
 10
-37.883720
 20
517.650757
 11
-39.736801
 21
517.650757
  0
LINE
  8
LC-006-012-----0
 62
     2
  6
DASHED
 10
-37.883720
 20
522.750793
 11
-39.736801
 21
522.750793
  0
LINE
  8
LC-006-012-----0
 62
     2
  6
DASHED
 10
-37.883720
 20
519.150757
 11
-39.736801
 21
519.150757
  0
LINE
  8
LC-006-012-----0
 62
     2
  6
DASHED
 10
-45.736801
 20
518.700745
 11
-45.736801
 21
523.200745
  0
ARC
  8
LC-006-012-----0
 62
     2
  6
DASHED
 10
-48.836803
 20
520.950745
 40
11.100000
 50
350.667582
 51
9.332418
  0
ARC
  8
LC-006-012-----0
 62
     2
  6
DASHED
 10
-39.736801
 20
518.400757
 40
1.999103
 50
337.965286
 51
22.034714
  0
LINE
  8
LC-006-012-----0
 62
     2
  6
DASHED
 10
-45.736801
 20
522.700745
 11
-48.586803
 21
522.700745
  0
ARC
  8
LC-006-012-----0
 62
     2
  6
DASHED
 10
-39.736801
 20
523.500793
 40
1.999103
 50
337.965286
 51
22.034714
  0
LINE
  8
LC-006-012-----0
 62
     2
  6
DASHED
 10
-40.236801
 20
518.450745
 11
-40.236801
 21
523.450745
  0
LINE
  8
LC-006-012-----0
 62
     2
  6
DASHED
 10
-39.736801
 20
523.150757
 11
-40.236801
 21
523.150757
  0
LINE
  8
LC-006-012-----0
 62
     2
  6
DASHED
 10
-39.736801
 20
518.750793
 11
-40.236801
 21
518.750793
  0
LINE
  8
LC-006-012-----0
 62
     2
  6
DASHED
 10
-45.736801
 20
519.200745
 11
-48.586803
 21
519.200745
  0
ARC
  8
LC-006-012-----0
 62
     2
  6
DASHED
 10
-48.586803
 20
522.450745
 40
0.250000
 50
90.000003
 51
180.000009
  0
ARC
  8
LC-006-012-----0
 62
     2
  6
DASHED
 10
-48.586803
 20
519.450745
 40
0.250000
 50
180.000009
 51
269.999997
  0
LINE
  8
LC-006-012-----0
 62
     2
  6
DASHED
 10
-39.736801
 20
514.450745
 11
-38.336803
 21
514.450745
  0
LINE
  8
LC-003-002-----0
 62
     1
  6
CONTINUOUS
 10
3.687057
 20
608.985291
 11
42.687057
 21
608.985291
  0
LINE
  8
LC-003-002-----0
 62
     1
  6
CONTINUOUS
 10
42.687057
 20
608.985291
 11
42.687057
 21
638.985291
  0
LINE
  8
LC-003-002-----0
 62
     1
  6
CONTINUOUS
 10
3.687057
 20
638.985291
 11
42.687057
 21
638.985291
  0
LINE
  8
LC-003-002-----0
 62
     1
  6
CONTINUOUS
 10
3.687057
 20
608.985291
 11
3.687057
 21
638.985291
  0
LINE
  8
LC-003-002-----0
 62
     1
  6
CONTINUOUS
 10
38.687057
 20
635.985291
 11
42.687057
 21
635.985291
  0
LINE
  8
LC-004-006-----0
 62
     2
  6
DASHDOT
 10
11.687057
 20
607.556885
 11
11.687057
 21
640.988831
  0
LINE
  8
LC-006-012-----0
 62
     2
  6
DASHED
 10
9.187057
 20
608.985291
 11
9.187057
 21
619.985291
  0
LINE
  8
LC-006-012-----0
 62
     2
  6
DASHED
 10
14.187057
 20
608.985291
 11
14.187057
 21
619.985291
  0
LINE
  8
LC-006-012-----0
 62
     2
  6
DASHED
 10
9.687057
 20
608.985291
 11
9.687057
 21
619.985291
  0
LINE
  8
LC-006-012-----0
 62
     2
  6
DASHED
 10
13.687057
 20
608.985291
 11
13.687057
 21
619.985291
  0
LINE
  8
LC-006-012-----0
 62
     2
  6
DASHED
 10
14.187057
 20
619.985291
 11
9.187057
 21
619.985291
  0
LINE
  8
LC-006-012-----0
 62
     2
  6
DASHED
 10
9.537057
 20
619.985291
 11
9.537057
 21
634.985291
  0
LINE
  8
LC-006-012-----0
 62
     2
  6
DASHED
 10
13.837057
 20
619.985291
 11
13.837057
 21
634.985291
  0
LINE
  8
LC-003-002-----0
 62
     1
  6
CONTINUOUS
 10
-7.667539
 20
632.985291
 11
3.687057
 21
632.985291
  0
LINE
  8
LC-003-002-----0
 62
     1
  6
CONTINUOUS
 10
15.687057
 20
634.985291
 11
7.687057
 21
634.985291
  0
LINE
  8
LC-004-006-----0
 62
     2
  6
DASHDOT
 10
-10.147286
 20
626.985291
 11
55.503559
 21
626.985291
  0
LINE
  8
LC-004-006-----0
 62
     2
  6
DASHDOT
 10
34.687057
 20
607.556885
 11
34.687057
 21
640.988831
  0
LINE
  8
LC-006-012-----0
 62
     2
  6
DASHED
 10
32.537056
 20
619.985291
 11
32.537056
 21
634.985291
  0
LINE
  8
LC-006-012-----0
 62
     2
  6
DASHED
 10
36.837055
 20
619.985291
 11
36.837055
 21
634.985291
  0
LINE
  8
LC-006-012-----0
 62
     2
  6
DASHED
 10
32.187057
 20
619.985291
 11
37.187057
 21
619.985291
  0
LINE
  8
LC-006-012-----0
 62
     2
  6
DASHED
 10
32.687057
 20
608.985291
 11
32.687057
 21
619.985291
  0
LINE
  8
LC-006-012-----0
 62
     2
  6
DASHED
 10
36.687057
 20
608.985291
 11
36.687057
 21
619.985291
  0
LINE
  8
LC-006-012-----0
 62
     2
  6
DASHED
 10
32.187057
 20
608.985291
 11
32.187057
 21
619.985291
  0
LINE
  8
LC-006-012-----0
 62
     2
  6
DASHED
 10
37.187057
 20
608.985291
 11
37.187057
 21
619.985291
  0
LINE
  8
LC-003-002-----0
 62
     1
  6
CONTINUOUS
 10
-6.817171
 20
620.985291
 11
3.687057
 21
620.985291
  0
LINE
  8
LC-003-002-----0
 62
     1
  6
CONTINUOUS
 10
30.687057
 20
634.985291
 11
38.687057
 21
634.985291
  0
LINE
  8
LC-006-012-----0
 62
     2
  6
DASHED
 10
3.687057
 20
615.485291
 11
42.687057
 21
615.485291
  0
LINE
  8
LC-003-002-----0
 62
     1
  6
CONTINUOUS
 10
7.687057
 20
634.985291
 11
7.687057
 21
638.985291
  0
LINE
  8
LC-006-012-----0
 62
     2
  6
DASHED
 10
3.687057
 20
631.648193
 11
42.687057
 21
631.648193
  0
LINE
  8
LC-004-006-----0
 62
     2
  6
DASHDOT
 10
23.187057
 20
617.213867
 11
23.187057
 21
632.145752
  0
LINE
  8
LC-006-012-----0
 62
     2
  6
DASHED
 10
20.327057
 20
626.058044
 11
23.187057
 21
627.709290
  0
LINE
  8
LC-006-012-----0
 62
     2
  6
DASHED
 10
23.187057
 20
621.104431
 11
26.047056
 21
622.755615
  0
LINE
  8
LC-006-012-----0
 62
     2
  6
DASHED
 10
20.327057
 20
622.755615
 11
20.327057
 21
626.058044
  0
LINE
  8
LC-006-012-----0
 62
     2
  6
DASHED
 10
26.047056
 20
622.755615
 11
26.047056
 21
626.058044
  0
LINE
  8
LC-006-012-----0
 62
     2
  6
DASHED
 10
23.187057
 20
621.104431
 11
20.327057
 21
622.755615
  0
LINE
  8
LC-006-012-----0
 62
     2
  6
DASHED
 10
26.047056
 20
626.058044
 11
23.187057
 21
627.709290
  0
CIRCLE
  8
LC-006-012-----0
 62
     2
  6
DASHED
 10
23.187057
 20
624.406860
 40
2.860000
  0
LINE
  8
LC-008-003-----0
 62
     2
  6
CONTINUOUS
 10
52.990520
 20
620.985291
 11
53.124905
 21
624.126099
  0
LINE
  8
LC-008-003-----0
 62
     2
  6
CONTINUOUS
 10
53.124905
 20
624.126099
 11
52.649174
 21
629.506226
  0
LINE
  8
LC-008-003-----0
 62
     2
  6
CONTINUOUS
 10
52.649174
 20
629.506226
 11
53.056343
 21
632.985291
  0
LINE
  8
LC-008-003-----0
 62
     2
  6
CONTINUOUS
 10
-6.817171
 20
620.985291
 11
-6.817171
 21
622.691406
  0
LINE
  8
LC-008-003-----0
 62
     2
  6
CONTINUOUS
 10
-6.817171
 20
622.691406
 11
-7.530767
 21
629.685547
  0
LINE
  8
LC-008-003-----0
 62
     2
  6
CONTINUOUS
 10
-7.530767
 20
629.685547
 11
-7.667539
 21
632.985291
  0
LINE
  8
LC-006-012-----0
 62
     2
  6
DASHED
 10
3.687057
 20
620.985291
 11
42.687057
 21
620.985291
  0
LINE
  8
LC-003-002-----0
 62
     1
  6
CONTINUOUS
 10
42.687057
 20
620.985291
 11
52.990520
 21
620.985291
  0
LINE
  8
LC-006-012-----0
 62
     2
  6
DASHED
 10
3.687057
 20
632.985291
 11
42.687057
 21
632.985291
  0
LINE
  8
LC-003-002-----0
 62
     1
  6
CONTINUOUS
 10
42.687057
 20
632.985291
 11
53.056343
 21
632.985291
  0
LINE
  8
LC-003-002-----0
 62
     1
  6
CONTINUOUS
 10
-41.336803
 20
638.985291
 11
-38.336803
 21
635.985291
  0
LINE
  8
LC-003-002-----0
 62
     1
  6
CONTINUOUS
 10
15.687057
 20
634.985291
 11
15.687057
 21
638.985291
  0
LINE
  8
LC-003-002-----0
 62
     1
  6
CONTINUOUS
 10
30.687057
 20
634.985291
 11
30.687057
 21
638.985291
  0
LINE
  8
LC-003-002-----0
 62
     1
  6
CONTINUOUS
 10
38.687057
 20
634.985291
 11
38.687057
 21
638.985291
  0
LINE
  8
LC-003-002-----0
 62
     1
  6
CONTINUOUS
 10
-66.573982
 20
635.922485
 11
-69.054207
 21
638.985291
  0
LINE
  8
LC-004-006-----0
 62
     2
  6
DASHDOT
 10
-50.121861
 20
625.853882
 11
-36.490166
 21
624.180115
  0
LINE
  8
LC-004-006-----0
 62
     2
  6
DASHDOT
 10
15.698647
 20
624.406860
 11
30.652340
 21
624.406860
  0
LINE
  8
LC-003-002-----0
 62
     1
  6
CONTINUOUS
 10
-52.099617
 20
635.922485
 11
-49.619392
 21
638.985291
  0
ENDSEC
  0
EOF
