  0
SECTION
  2
HEADER
  9
$LIMMIN
 10
-81.694794
 20
205.352203
  9
$LIMMAX
 10
72.346771
 20
386.001984
  9
$EXTMIN
 10
-81.694794
 20
205.352203
  9
$EXTMAX
 10
72.346771
 20
386.001984
  0
ENDSEC
  0
SECTION
  2
TABLES
  0
TABLE
  2
LTYPE
 70
     3
  0
LTYPE
  2
CONTINUOUS
 70
    64
  3
Ausgezogene Linie
 72
    65
 73
     0
 40
0.0
  0
LTYPE
  2
DASHED
 70
    64
  3
__ __ __ __ __ __ __ __ __ __ __ __ __ __ __
 72
    65
 73
     2
 40
0.75
 49
0.5
 49
-0.25
  0
LTYPE
  2
DASHDOT
 70
    64
  3
__ . __ . __ . __ . __ . __ . __ . __ . __ . __
 72
    65
 73
     4
 40
1.0
 49
0.5
 49
-0.25
 49
0.0
 49
-0.25
  0
ENDTAB
  0
TABLE
  2
LAYER
 70
     4
  0
LAYER
  2
LC-003-002-----0
 70
    64
 62
     7
  6
CONTINUOUS
  0
LAYER
  2
LC-004-006-----0
 70
    64
 62
     7
  6
CONTINUOUS
  0
LAYER
  2
LC-006-012-----0
 70
    64
 62
     7
  6
CONTINUOUS
  0
LAYER
  2
LC-008-003-----0
 70
    64
 62
     7
  6
CONTINUOUS
  0
ENDTAB
  0
TABLE
  2
STYLE
 70
     1
  0
STYLE
  2
TXT8
 70
    64
 40
0.0
 41
1.0
 50
0.0
 71
     0
 42
3.500000
  3
TXT8
  4

  0
ENDTAB
  0
ENDSEC
  0
SECTION
  2
BLOCKS
  0
ENDSEC
  0
SECTION
  2
ENTITIES
  0
LINE
  8
LC-003-002-----0
 62
     1
  6
CONTINUOUS
 10
-80.336800
 20
348.972778
 11
-80.336800
 21
379.972778
  0
LINE
  8
LC-003-002-----0
 62
     1
  6
CONTINUOUS
 10
-80.336800
 20
348.972778
 11
-28.336803
 21
348.972778
  0
LINE
  8
LC-003-002-----0
 62
     1
  6
CONTINUOUS
 10
-28.336802
 20
348.972778
 11
-28.336802
 21
379.972778
  0
LINE
  8
LC-003-002-----0
 62
     1
  6
CONTINUOUS
 10
-76.336800
 20
383.972778
 11
-64.863991
 21
383.972778
  0
LINE
  8
LC-004-006-----0
 62
     2
  6
DASHDOT
 10
-54.336803
 20
386.001984
 11
-54.336803
 21
346.289246
  0
LINE
  8
LC-004-006-----0
 62
     2
  6
DASHDOT
 10
-70.068268
 20
370.972778
 11
-26.333218
 21
370.972778
  0
LINE
  8
LC-003-002-----0
 62
     1
  6
CONTINUOUS
 10
15.539642
 20
348.972778
 11
58.539642
 21
348.972778
  0
LINE
  8
LC-003-002-----0
 62
     1
  6
CONTINUOUS
 10
15.539642
 20
383.972778
 11
15.539642
 21
348.972778
  0
LINE
  8
LC-003-002-----0
 62
     1
  6
CONTINUOUS
 10
58.539642
 20
383.972778
 11
58.539642
 21
348.972778
  0
LINE
  8
LC-003-002-----0
 62
     1
  6
CONTINUOUS
 10
-49.302238
 20
377.189941
 11
-46.155636
 21
381.075653
  0
LINE
  8
LC-003-002-----0
 62
     1
  6
CONTINUOUS
 10
-32.336803
 20
383.972778
 11
-43.809608
 21
383.972778
  0
LINE
  8
LC-003-002-----0
 62
     1
  6
CONTINUOUS
 10
-59.371365
 20
377.189941
 11
-62.517967
 21
381.075653
  0
ARC
  8
LC-003-002-----0
 62
     1
  6
CONTINUOUS
 10
-54.336803
 20
370.972778
 40
13.000000
 50
128.999993
 51
51.000001
  0
ARC
  8
LC-003-002-----0
 62
     1
  6
CONTINUOUS
 10
-54.336803
 20
370.972778
 40
11.000000
 50
128.999993
 51
51.000001
  0
CIRCLE
  8
LC-003-002-----0
 62
     1
  6
CONTINUOUS
 10
-54.336803
 20
370.972778
 40
8.000000
  0
LINE
  8
LC-004-006-----0
 62
     2
  6
DASHDOT
 10
-74.336800
 20
386.001984
 11
-74.336800
 21
346.289246
  0
LINE
  8
LC-006-012-----0
 62
     2
  6
DASHED
 10
-71.336800
 20
361.972778
 11
-71.336800
 21
348.972778
  0
LINE
  8
LC-006-012-----0
 62
     2
  6
DASHED
 10
-71.836800
 20
361.972778
 11
-71.836800
 21
348.972778
  0
LINE
  8
LC-006-012-----0
 62
     2
  6
DASHED
 10
-76.836800
 20
361.972778
 11
-76.836800
 21
348.972778
  0
LINE
  8
LC-006-012-----0
 62
     2
  6
DASHED
 10
-77.336800
 20
361.972778
 11
-77.336800
 21
348.972778
  0
LINE
  8
LC-006-012-----0
 62
     2
  6
DASHED
 10
-77.336800
 20
361.972778
 11
-71.336800
 21
361.972778
  0
LINE
  8
LC-006-012-----0
 62
     2
  6
DASHED
 10
-71.686806
 20
378.972778
 11
-71.686806
 21
361.972778
  0
LINE
  8
LC-003-002-----0
 62
     1
  6
CONTINUOUS
 10
15.539642
 20
379.972778
 11
19.039642
 21
379.972778
  0
LINE
  8
LC-003-002-----0
 62
     1
  6
CONTINUOUS
 10
29.039642
 20
379.972778
 11
45.039642
 21
379.972778
  0
LINE
  8
LC-003-002-----0
 62
     1
  6
CONTINUOUS
 10
55.039642
 20
379.972778
 11
58.539642
 21
379.972778
  0
LINE
  8
LC-003-002-----0
 62
     1
  6
CONTINUOUS
 10
-74.336800
 20
267.093872
 11
-80.336800
 21
267.093872
  0
LINE
  8
LC-006-012-----0
 62
     2
  6
DASHED
 10
-76.986801
 20
378.972778
 11
-76.986801
 21
361.972778
  0
LINE
  8
LC-006-012-----0
 62
     2
  6
DASHED
 10
-80.336800
 20
378.972778
 11
-69.336800
 21
378.972778
  0
LINE
  8
LC-006-012-----0
 62
     2
  6
DASHED
 10
-69.336800
 20
383.972778
 11
-69.336800
 21
378.972778
  0
LINE
  8
LC-003-002-----0
 62
     1
  6
CONTINUOUS
 10
-80.336800
 20
379.972778
 11
-76.336800
 21
383.972778
  0
LINE
  8
LC-003-002-----0
 62
     1
  6
CONTINUOUS
 10
-28.336802
 20
379.972778
 11
-32.336803
 21
383.972778
  0
LINE
  8
LC-004-006-----0
 62
     2
  6
DASHDOT
 10
-34.336803
 20
386.001984
 11
-34.336803
 21
346.289246
  0
LINE
  8
LC-006-012-----0
 62
     2
  6
DASHED
 10
-37.336803
 20
361.972778
 11
-37.336803
 21
348.972778
  0
LINE
  8
LC-006-012-----0
 62
     2
  6
DASHED
 10
-36.836803
 20
361.972778
 11
-36.836803
 21
348.972778
  0
LINE
  8
LC-006-012-----0
 62
     2
  6
DASHED
 10
-31.836802
 20
361.972778
 11
-31.836802
 21
348.972778
  0
LINE
  8
LC-006-012-----0
 62
     2
  6
DASHED
 10
-31.336802
 20
361.972778
 11
-31.336802
 21
348.972778
  0
LINE
  8
LC-006-012-----0
 62
     2
  6
DASHED
 10
-31.336802
 20
361.972778
 11
-37.336803
 21
361.972778
  0
LINE
  8
LC-006-012-----0
 62
     2
  6
DASHED
 10
-36.986801
 20
378.972778
 11
-36.986801
 21
361.972778
  0
LINE
  8
LC-006-012-----0
 62
     2
  6
DASHED
 10
-31.686802
 20
378.972778
 11
-31.686802
 21
361.972778
  0
LINE
  8
LC-006-012-----0
 62
     2
  6
DASHED
 10
-28.336802
 20
378.972778
 11
-39.336803
 21
378.972778
  0
LINE
  8
LC-006-012-----0
 62
     2
  6
DASHED
 10
-39.336803
 20
383.972778
 11
-39.336803
 21
378.972778
  0
LINE
  8
LC-006-012-----0
 62
     2
  6
DASHED
 10
-33.236801
 20
377.472778
 11
-28.336802
 21
377.472778
  0
LINE
  8
LC-006-012-----0
 62
     2
  6
DASHED
 10
-33.736801
 20
372.972778
 11
-39.236801
 21
372.972778
  0
LINE
  8
LC-006-012-----0
 62
     2
  6
DASHED
 10
-33.736801
 20
368.972778
 11
-39.236801
 21
368.972778
  0
LINE
  8
LC-006-012-----0
 62
     2
  6
DASHED
 10
-38.986801
 20
373.472778
 11
-33.736801
 21
373.472778
  0
LINE
  8
LC-006-012-----0
 62
     2
  6
DASHED
 10
-33.736801
 20
368.472778
 11
-38.986801
 21
368.472778
  0
LINE
  8
LC-006-012-----0
 62
     2
  6
DASHED
 10
-31.236801
 20
368.422760
 11
-31.236801
 21
373.522766
  0
LINE
  8
LC-006-012-----0
 62
     2
  6
DASHED
 10
-42.336803
 20
369.472778
 11
-42.336803
 21
372.472778
  0
LINE
  8
LC-006-012-----0
 62
     2
  6
DASHED
 10
-39.236801
 20
373.222778
 11
-38.986801
 21
373.472778
  0
LINE
  8
LC-006-012-----0
 62
     2
  6
DASHED
 10
-38.986801
 20
368.472778
 11
-39.236801
 21
368.722778
  0
LINE
  8
LC-006-012-----0
 62
     2
  6
DASHED
 10
-38.986801
 20
368.472778
 11
-38.986801
 21
373.472778
  0
LINE
  8
LC-006-012-----0
 62
     2
  6
DASHED
 10
-31.383720
 20
374.272766
 11
-33.236801
 21
374.272766
  0
LINE
  8
LC-006-012-----0
 62
     2
  6
DASHED
 10
-31.383720
 20
367.672760
 11
-33.236801
 21
367.672760
  0
LINE
  8
LC-006-012-----0
 62
     2
  6
DASHED
 10
-31.383720
 20
372.772766
 11
-33.236801
 21
372.772766
  0
LINE
  8
LC-006-012-----0
 62
     2
  6
DASHED
 10
-31.383720
 20
369.172760
 11
-33.236801
 21
369.172760
  0
LINE
  8
LC-006-012-----0
 62
     2
  6
DASHED
 10
-39.236801
 20
368.722778
 11
-39.236801
 21
373.222778
  0
ARC
  8
LC-006-012-----0
 62
     2
  6
DASHED
 10
-42.336803
 20
370.972778
 40
11.100000
 50
350.667582
 51
9.332418
  0
ARC
  8
LC-006-012-----0
 62
     2
  6
DASHED
 10
-33.236801
 20
368.422760
 40
1.999103
 50
337.965286
 51
22.034714
  0
LINE
  8
LC-006-012-----0
 62
     2
  6
DASHED
 10
-39.236801
 20
372.722778
 11
-42.086803
 21
372.722778
  0
ARC
  8
LC-006-012-----0
 62
     2
  6
DASHED
 10
-33.236801
 20
373.522766
 40
1.999103
 50
337.965286
 51
22.034714
  0
LINE
  8
LC-006-012-----0
 62
     2
  6
DASHED
 10
-33.736801
 20
368.472778
 11
-33.736801
 21
373.472778
  0
LINE
  8
LC-006-012-----0
 62
     2
  6
DASHED
 10
-33.236801
 20
373.172760
 11
-33.736801
 21
373.172760
  0
LINE
  8
LC-006-012-----0
 62
     2
  6
DASHED
 10
-33.236801
 20
368.772766
 11
-33.736801
 21
368.772766
  0
LINE
  8
LC-006-012-----0
 62
     2
  6
DASHED
 10
-39.236801
 20
369.222778
 11
-42.086803
 21
369.222778
  0
ARC
  8
LC-006-012-----0
 62
     2
  6
DASHED
 10
-42.086803
 20
372.472778
 40
0.250000
 50
90.000003
 51
180.000009
  0
ARC
  8
LC-006-012-----0
 62
     2
  6
DASHED
 10
-42.086803
 20
369.472778
 40
0.250000
 50
180.000009
 51
269.999997
  0
LINE
  8
LC-006-012-----0
 62
     2
  6
DASHED
 10
-33.236801
 20
364.472778
 11
-28.336802
 21
364.472778
  0
LINE
  8
LC-006-012-----0
 62
     2
  6
DASHED
 10
-33.236801
 20
364.472778
 11
-33.236801
 21
377.472778
  0
LINE
  8
LC-003-002-----0
 62
     1
  6
CONTINUOUS
 10
-80.336800
 20
270.593872
 11
-80.336800
 21
227.593903
  0
LINE
  8
LC-003-002-----0
 62
     1
  6
CONTINUOUS
 10
-80.336800
 20
227.593887
 11
-28.336803
 21
227.593887
  0
LINE
  8
LC-003-002-----0
 62
     1
  6
CONTINUOUS
 10
-80.336800
 20
270.593872
 11
-28.336803
 21
270.593872
  0
LINE
  8
LC-003-002-----0
 62
     1
  6
CONTINUOUS
 10
-28.336802
 20
270.593872
 11
-28.336802
 21
227.593903
  0
LINE
  8
LC-006-012-----0
 62
     2
  6
DASHED
 10
-67.336800
 20
270.593872
 11
-67.336800
 21
227.593903
  0
LINE
  8
LC-004-006-----0
 62
     2
  6
DASHDOT
 10
-67.666779
 20
262.093872
 11
-81.694794
 21
262.093872
  0
LINE
  8
LC-004-006-----0
 62
     2
  6
DASHDOT
 10
-74.336800
 20
268.775909
 11
-74.336800
 21
254.649826
  0
ARC
  8
LC-008-003-----0
 62
     2
  6
CONTINUOUS
 10
-74.336800
 20
262.093872
 40
3.000000
 50
80.194262
 51
10.969803
  0
CIRCLE
  8
LC-003-002-----0
 62
     1
  6
CONTINUOUS
 10
-74.336800
 20
262.093872
 40
2.500000
  0
LINE
  8
LC-004-006-----0
 62
     2
  6
DASHDOT
 10
-67.666779
 20
236.093887
 11
-81.694794
 21
236.093887
  0
LINE
  8
LC-004-006-----0
 62
     2
  6
DASHDOT
 10
-74.336800
 20
229.411835
 11
-74.336800
 21
243.537949
  0
ARC
  8
LC-008-003-----0
 62
     2
  6
CONTINUOUS
 10
-74.336800
 20
236.093887
 40
3.000000
 50
349.030197
 51
279.805738
  0
CIRCLE
  8
LC-003-002-----0
 62
     1
  6
CONTINUOUS
 10
-74.336800
 20
236.093887
 40
2.500000
  0
LINE
  8
LC-003-002-----0
 62
     1
  6
CONTINUOUS
 10
-76.336800
 20
270.593872
 11
-76.336800
 21
267.093872
  0
LINE
  8
LC-003-002-----0
 62
     1
  6
CONTINUOUS
 10
-76.336800
 20
231.093887
 11
-76.336800
 21
227.593887
  0
LINE
  8
LC-003-002-----0
 62
     1
  6
CONTINUOUS
 10
-76.336800
 20
257.093872
 11
-76.336800
 21
241.093903
  0
LINE
  8
LC-004-006-----0
 62
     2
  6
DASHDOT
 10
-41.006821
 20
262.093872
 11
-26.978809
 21
262.093872
  0
LINE
  8
LC-004-006-----0
 62
     2
  6
DASHDOT
 10
-34.336803
 20
268.775909
 11
-34.336803
 21
254.649826
  0
ARC
  8
LC-008-003-----0
 62
     2
  6
CONTINUOUS
 10
-34.336803
 20
262.093872
 40
3.000000
 50
169.030202
 51
99.805736
  0
CIRCLE
  8
LC-003-002-----0
 62
     1
  6
CONTINUOUS
 10
-34.336803
 20
262.093872
 40
2.500000
  0
LINE
  8
LC-003-002-----0
 62
     1
  6
CONTINUOUS
 10
-32.336803
 20
270.593872
 11
-32.336803
 21
267.093872
  0
LINE
  8
LC-004-006-----0
 62
     2
  6
DASHDOT
 10
-41.006821
 20
236.093887
 11
-26.978809
 21
236.093887
  0
LINE
  8
LC-004-006-----0
 62
     2
  6
DASHDOT
 10
-34.336803
 20
229.411835
 11
-34.336803
 21
243.537949
  0
ARC
  8
LC-008-003-----0
 62
     2
  6
CONTINUOUS
 10
-34.336803
 20
236.093887
 40
3.000000
 50
260.194264
 51
190.969798
  0
CIRCLE
  8
LC-003-002-----0
 62
     1
  6
CONTINUOUS
 10
-34.336803
 20
236.093887
 40
2.500000
  0
LINE
  8
LC-003-002-----0
 62
     1
  6
CONTINUOUS
 10
-32.336803
 20
231.093887
 11
-32.336803
 21
227.593887
  0
LINE
  8
LC-003-002-----0
 62
     1
  6
CONTINUOUS
 10
-32.336803
 20
257.093872
 11
-32.336803
 21
241.093903
  0
LINE
  8
LC-006-012-----0
 62
     2
  6
DASHED
 10
-41.336803
 20
270.593872
 11
-41.336803
 21
227.593903
  0
LINE
  8
LC-004-006-----0
 62
     2
  6
DASHDOT
 10
-44.541477
 20
249.093887
 11
-25.905434
 21
249.093887
  0
LINE
  8
LC-006-012-----0
 62
     2
  6
DASHED
 10
-33.236801
 20
255.593887
 11
-28.336802
 21
255.593887
  0
LINE
  8
LC-006-012-----0
 62
     2
  6
DASHED
 10
-33.736801
 20
251.093887
 11
-39.236801
 21
251.093887
  0
LINE
  8
LC-006-012-----0
 62
     2
  6
DASHED
 10
-33.736801
 20
247.093887
 11
-39.236801
 21
247.093887
  0
LINE
  8
LC-006-012-----0
 62
     2
  6
DASHED
 10
-38.986801
 20
251.593887
 11
-33.736801
 21
251.593887
  0
LINE
  8
LC-006-012-----0
 62
     2
  6
DASHED
 10
-33.736801
 20
246.593887
 11
-38.986801
 21
246.593887
  0
LINE
  8
LC-006-012-----0
 62
     2
  6
DASHED
 10
-31.236801
 20
246.543884
 11
-31.236801
 21
251.643875
  0
LINE
  8
LC-006-012-----0
 62
     2
  6
DASHED
 10
-42.336803
 20
247.593887
 11
-42.336803
 21
250.593887
  0
LINE
  8
LC-006-012-----0
 62
     2
  6
DASHED
 10
-39.236801
 20
251.343887
 11
-38.986801
 21
251.593887
  0
LINE
  8
LC-006-012-----0
 62
     2
  6
DASHED
 10
-38.986801
 20
246.593887
 11
-39.236801
 21
246.843887
  0
LINE
  8
LC-006-012-----0
 62
     2
  6
DASHED
 10
-38.986801
 20
246.593887
 11
-38.986801
 21
251.593887
  0
LINE
  8
LC-006-012-----0
 62
     2
  6
DASHED
 10
-31.383720
 20
252.393875
 11
-33.236801
 21
252.393875
  0
LINE
  8
LC-006-012-----0
 62
     2
  6
DASHED
 10
-31.383720
 20
245.793884
 11
-33.236801
 21
245.793884
  0
LINE
  8
LC-006-012-----0
 62
     2
  6
DASHED
 10
-31.383720
 20
250.893875
 11
-33.236801
 21
250.893875
  0
LINE
  8
LC-006-012-----0
 62
     2
  6
DASHED
 10
-31.383720
 20
247.293884
 11
-33.236801
 21
247.293884
  0
LINE
  8
LC-006-012-----0
 62
     2
  6
DASHED
 10
-39.236801
 20
246.843887
 11
-39.236801
 21
251.343887
  0
ARC
  8
LC-006-012-----0
 62
     2
  6
DASHED
 10
-42.336803
 20
249.093887
 40
11.100000
 50
350.667582
 51
9.332418
  0
ARC
  8
LC-006-012-----0
 62
     2
  6
DASHED
 10
-33.236801
 20
246.543884
 40
1.999103
 50
337.965286
 51
22.034714
  0
LINE
  8
LC-006-012-----0
 62
     2
  6
DASHED
 10
-39.236801
 20
250.843887
 11
-42.086803
 21
250.843887
  0
ARC
  8
LC-006-012-----0
 62
     2
  6
DASHED
 10
-33.236801
 20
251.643875
 40
1.999103
 50
337.965286
 51
22.034714
  0
LINE
  8
LC-006-012-----0
 62
     2
  6
DASHED
 10
-33.736801
 20
246.593887
 11
-33.736801
 21
251.593887
  0
LINE
  8
LC-006-012-----0
 62
     2
  6
DASHED
 10
-33.236801
 20
251.293884
 11
-33.736801
 21
251.293884
  0
LINE
  8
LC-006-012-----0
 62
     2
  6
DASHED
 10
-33.236801
 20
246.893875
 11
-33.736801
 21
246.893875
  0
LINE
  8
LC-006-012-----0
 62
     2
  6
DASHED
 10
-39.236801
 20
247.343887
 11
-42.086803
 21
247.343887
  0
ARC
  8
LC-006-012-----0
 62
     2
  6
DASHED
 10
-42.086803
 20
250.593887
 40
0.250000
 50
90.000003
 51
180.000009
  0
ARC
  8
LC-006-012-----0
 62
     2
  6
DASHED
 10
-42.086803
 20
247.593887
 40
0.250000
 50
180.000009
 51
269.999997
  0
LINE
  8
LC-006-012-----0
 62
     2
  6
DASHED
 10
-33.236801
 20
242.593887
 11
-28.336802
 21
242.593887
  0
LINE
  8
LC-006-012-----0
 62
     2
  6
DASHED
 10
-33.236801
 20
242.593887
 11
-33.236801
 21
255.593887
  0
LINE
  8
LC-004-006-----0
 62
     2
  6
DASHDOT
 10
-54.336803
 20
290.198029
 11
-54.336803
 21
205.352203
  0
LINE
  8
LC-003-002-----0
 62
     1
  6
CONTINUOUS
 10
-62.336803
 20
286.252930
 11
-62.336803
 21
270.593872
  0
LINE
  8
LC-003-002-----0
 62
     1
  6
CONTINUOUS
 10
-46.336803
 20
286.423401
 11
-46.336803
 21
270.593872
  0
LINE
  8
LC-008-003-----0
 62
     2
  6
CONTINUOUS
 10
-62.336803
 20
286.252930
 11
-58.332760
 21
285.904633
  0
LINE
  8
LC-008-003-----0
 62
     2
  6
CONTINUOUS
 10
-58.332760
 20
285.904633
 11
-49.112900
 21
286.722412
  0
LINE
  8
LC-008-003-----0
 62
     2
  6
CONTINUOUS
 10
-49.112900
 20
286.722412
 11
-46.336803
 21
286.423401
  0
LINE
  8
LC-008-003-----0
 62
     2
  6
CONTINUOUS
 10
-62.336803
 20
210.173264
 11
-59.146275
 21
209.441162
  0
LINE
  8
LC-008-003-----0
 62
     2
  6
CONTINUOUS
 10
-59.146275
 20
209.441162
 11
-49.655247
 21
209.645615
  0
LINE
  8
LC-008-003-----0
 62
     2
  6
CONTINUOUS
 10
-49.655247
 20
209.645615
 11
-46.336803
 21
209.342361
  0
LINE
  8
LC-006-012-----0
 62
     2
  6
DASHED
 10
-62.336803
 20
270.593872
 11
-62.336803
 21
227.593903
  0
LINE
  8
LC-006-012-----0
 62
     2
  6
DASHED
 10
-46.336803
 20
270.593872
 11
-46.336803
 21
227.593903
  0
LINE
  8
LC-003-002-----0
 62
     1
  6
CONTINUOUS
 10
-46.336803
 20
227.593887
 11
-46.336803
 21
209.342361
  0
LINE
  8
LC-003-002-----0
 62
     1
  6
CONTINUOUS
 10
-62.336803
 20
227.593887
 11
-62.336803
 21
210.173264
  0
LINE
  8
LC-003-002-----0
 62
     1
  6
CONTINUOUS
 10
-64.863991
 20
270.593872
 11
-64.863991
 21
227.593903
  0
LINE
  8
LC-003-002-----0
 62
     1
  6
CONTINUOUS
 10
-62.517967
 20
270.593872
 11
-62.517967
 21
227.593903
  0
LINE
  8
LC-003-002-----0
 62
     1
  6
CONTINUOUS
 10
-59.371365
 20
270.593872
 11
-59.371365
 21
227.593903
  0
LINE
  8
LC-003-002-----0
 62
     1
  6
CONTINUOUS
 10
-43.809608
 20
270.593872
 11
-43.809608
 21
227.593903
  0
LINE
  8
LC-003-002-----0
 62
     1
  6
CONTINUOUS
 10
-49.302238
 20
270.593872
 11
-49.302238
 21
227.593903
  0
LINE
  8
LC-003-002-----0
 62
     1
  6
CONTINUOUS
 10
-46.155636
 20
270.593872
 11
-46.155636
 21
227.593903
  0
LINE
  8
LC-003-002-----0
 62
     1
  6
CONTINUOUS
 10
15.539642
 20
383.972778
 11
58.539642
 21
383.972778
  0
LINE
  8
LC-003-002-----0
 62
     1
  6
CONTINUOUS
 10
-74.336800
 20
257.093872
 11
-80.336800
 21
257.093872
  0
LINE
  8
LC-006-012-----0
 62
     2
  6
DASHED
 10
15.539642
 20
381.075653
 11
58.539642
 21
381.075653
  0
LINE
  8
LC-006-012-----0
 62
     2
  6
DASHED
 10
15.539642
 20
377.189941
 11
58.539642
 21
377.189941
  0
LINE
  8
LC-006-012-----0
 62
     2
  6
DASHED
 10
15.539642
 20
357.972778
 11
58.539642
 21
357.972778
  0
LINE
  8
LC-003-002-----0
 62
     1
  6
CONTINUOUS
 10
19.039642
 20
383.972778
 11
19.039642
 21
378.972778
  0
LINE
  8
LC-004-006-----0
 62
     2
  6
DASHDOT
 10
24.039642
 20
386.001984
 11
24.039642
 21
346.289246
  0
LINE
  8
LC-006-012-----0
 62
     2
  6
DASHED
 10
21.039642
 20
361.972778
 11
21.039642
 21
348.972778
  0
LINE
  8
LC-006-012-----0
 62
     2
  6
DASHED
 10
21.539642
 20
361.972778
 11
21.539642
 21
348.972778
  0
LINE
  8
LC-006-012-----0
 62
     2
  6
DASHED
 10
26.539642
 20
361.972778
 11
26.539642
 21
348.972778
  0
LINE
  8
LC-006-012-----0
 62
     2
  6
DASHED
 10
27.039642
 20
361.972778
 11
27.039642
 21
348.972778
  0
LINE
  8
LC-006-012-----0
 62
     2
  6
DASHED
 10
27.039642
 20
361.972778
 11
21.039642
 21
361.972778
  0
LINE
  8
LC-006-012-----0
 62
     2
  6
DASHED
 10
21.389643
 20
378.972778
 11
21.389643
 21
361.972778
  0
LINE
  8
LC-006-012-----0
 62
     2
  6
DASHED
 10
26.689642
 20
378.972778
 11
26.689642
 21
361.972778
  0
LINE
  8
LC-003-002-----0
 62
     1
  6
CONTINUOUS
 10
1.960989
 20
378.972778
 11
15.539642
 21
378.972778
  0
LINE
  8
LC-003-002-----0
 62
     1
  6
CONTINUOUS
 10
29.039642
 20
378.972778
 11
19.039642
 21
378.972778
  0
LINE
  8
LC-003-002-----0
 62
     1
  6
CONTINUOUS
 10
29.039642
 20
383.972778
 11
29.039642
 21
378.972778
  0
ARC
  8
LC-003-002-----0
 62
     1
  6
CONTINUOUS
 10
-74.336800
 20
262.093872
 40
5.000000
 50
269.999997
 51
90.000003
  0
LINE
  8
LC-003-002-----0
 62
     1
  6
CONTINUOUS
 10
2.380550
 20
362.972778
 11
15.539642
 21
362.972778
  0
LINE
  8
LC-003-002-----0
 62
     1
  6
CONTINUOUS
 10
55.039642
 20
383.972778
 11
55.039642
 21
378.972778
  0
LINE
  8
LC-004-006-----0
 62
     2
  6
DASHDOT
 10
50.039642
 20
386.001984
 11
50.039642
 21
346.289246
  0
LINE
  8
LC-006-012-----0
 62
     2
  6
DASHED
 10
53.039642
 20
361.972778
 11
53.039642
 21
348.972778
  0
LINE
  8
LC-006-012-----0
 62
     2
  6
DASHED
 10
52.539642
 20
361.972778
 11
52.539642
 21
348.972778
  0
LINE
  8
LC-006-012-----0
 62
     2
  6
DASHED
 10
47.539642
 20
361.972778
 11
47.539642
 21
348.972778
  0
LINE
  8
LC-006-012-----0
 62
     2
  6
DASHED
 10
47.039642
 20
361.972778
 11
47.039642
 21
348.972778
  0
LINE
  8
LC-006-012-----0
 62
     2
  6
DASHED
 10
47.039642
 20
361.972778
 11
53.039642
 21
361.972778
  0
LINE
  8
LC-006-012-----0
 62
     2
  6
DASHED
 10
52.689644
 20
378.972778
 11
52.689644
 21
361.972778
  0
LINE
  8
LC-006-012-----0
 62
     2
  6
DASHED
 10
47.389641
 20
378.972778
 11
47.389641
 21
361.972778
  0
LINE
  8
LC-003-002-----0
 62
     1
  6
CONTINUOUS
 10
45.039642
 20
378.972778
 11
55.039642
 21
378.972778
  0
LINE
  8
LC-003-002-----0
 62
     1
  6
CONTINUOUS
 10
45.039642
 20
383.972778
 11
45.039642
 21
378.972778
  0
ARC
  8
LC-003-002-----0
 62
     1
  6
CONTINUOUS
 10
-74.336800
 20
236.093887
 40
5.000000
 50
269.999997
 51
90.000003
  0
LINE
  8
LC-004-006-----0
 62
     2
  6
DASHDOT
 10
-0.876594
 20
370.972778
 11
72.346771
 21
370.972778
  0
LINE
  8
LC-003-002-----0
 62
     2
  6
CONTINUOUS
 10
69.993591
 20
362.972778
 11
70.423462
 21
366.861938
  0
LINE
  8
LC-003-002-----0
 62
     2
  6
CONTINUOUS
 10
70.423462
 20
366.861938
 11
69.187042
 21
374.630127
  0
LINE
  8
LC-004-006-----0
 62
     2
  6
DASHDOT
 10
37.039642
 20
361.765594
 11
37.039642
 21
379.709839
  0
CIRCLE
  8
LC-006-012-----0
 62
     2
  6
DASHED
 10
37.039642
 20
370.972778
 40
6.500000
  0
LINE
  8
LC-006-012-----0
 62
     2
  6
DASHED
 10
34.179642
 20
372.623993
 11
37.039642
 21
374.275208
  0
LINE
  8
LC-006-012-----0
 62
     2
  6
DASHED
 10
37.039642
 20
367.670319
 11
39.899643
 21
369.321533
  0
LINE
  8
LC-006-012-----0
 62
     2
  6
DASHED
 10
34.179642
 20
369.321533
 11
34.179642
 21
372.623993
  0
LINE
  8
LC-006-012-----0
 62
     2
  6
DASHED
 10
39.899643
 20
369.321533
 11
39.899643
 21
372.623993
  0
LINE
  8
LC-006-012-----0
 62
     2
  6
DASHED
 10
37.039642
 20
367.670319
 11
34.179642
 21
369.321533
  0
LINE
  8
LC-006-012-----0
 62
     2
  6
DASHED
 10
39.899643
 20
372.623993
 11
37.039642
 21
374.275208
  0
CIRCLE
  8
LC-006-012-----0
 62
     2
  6
DASHED
 10
37.039642
 20
370.972778
 40
2.860000
  0
LINE
  8
LC-003-002-----0
 62
     2
  6
CONTINUOUS
 10
69.187042
 20
374.630127
 11
69.105919
 21
378.972778
  0
LINE
  8
LC-003-002-----0
 62
     2
  6
CONTINUOUS
 10
2.380550
 20
362.972778
 11
2.008379
 21
365.722595
  0
LINE
  8
LC-003-002-----0
 62
     2
  6
CONTINUOUS
 10
2.008379
 20
365.722595
 11
2.420518
 21
374.526550
  0
LINE
  8
LC-003-002-----0
 62
     2
  6
CONTINUOUS
 10
2.420518
 20
374.526550
 11
1.960989
 21
378.972778
  0
LINE
  8
LC-006-012-----0
 62
     2
  6
DASHED
 10
15.539642
 20
378.972778
 11
58.539642
 21
378.972778
  0
LINE
  8
LC-006-012-----0
 62
     2
  6
DASHED
 10
15.539642
 20
362.972778
 11
58.539642
 21
362.972778
  0
LINE
  8
LC-003-002-----0
 62
     1
  6
CONTINUOUS
 10
58.539642
 20
378.972778
 11
69.105919
 21
378.972778
  0
LINE
  8
LC-003-002-----0
 62
     1
  6
CONTINUOUS
 10
58.539642
 20
362.972778
 11
69.993591
 21
362.972778
  0
ARC
  8
LC-003-002-----0
 62
     1
  6
CONTINUOUS
 10
-34.336803
 20
236.093887
 40
5.000000
 50
90.000003
 51
269.999997
  0
ARC
  8
LC-003-002-----0
 62
     1
  6
CONTINUOUS
 10
-34.336803
 20
262.093872
 40
5.000000
 50
90.000003
 51
269.999997
  0
LINE
  8
LC-003-002-----0
 62
     1
  6
CONTINUOUS
 10
-74.336800
 20
241.093887
 11
-80.336800
 21
241.093887
  0
LINE
  8
LC-003-002-----0
 62
     1
  6
CONTINUOUS
 10
-74.336800
 20
231.093887
 11
-80.336800
 21
231.093887
  0
LINE
  8
LC-003-002-----0
 62
     1
  6
CONTINUOUS
 10
-34.336803
 20
257.093872
 11
-28.336800
 21
257.093872
  0
LINE
  8
LC-003-002-----0
 62
     1
  6
CONTINUOUS
 10
-34.336803
 20
267.093872
 11
-28.336800
 21
267.093872
  0
LINE
  8
LC-003-002-----0
 62
     1
  6
CONTINUOUS
 10
-34.336803
 20
241.093887
 11
-28.336800
 21
241.093887
  0
LINE
  8
LC-003-002-----0
 62
     1
  6
CONTINUOUS
 10
-34.336803
 20
231.093887
 11
-28.336800
 21
231.093887
  0
LINE
  8
LC-003-002-----0
 62
     1
  6
CONTINUOUS
 10
-62.517967
 20
381.075653
 11
-64.863991
 21
383.972778
  0
LINE
  8
LC-003-002-----0
 62
     1
  6
CONTINUOUS
 10
-46.155636
 20
381.075653
 11
-43.809608
 21
383.972778
  0
ENDSEC
  0
EOF
