  0
SECTION
  2
HEADER
  9
$LIMMIN
 10
-82.714737
 20
-74.624168
  9
$LIMMAX
 10
108.201256
 20
119.784241
  9
$EXTMIN
 10
-82.714737
 20
-74.624168
  9
$EXTMAX
 10
108.201256
 20
119.784241
  0
ENDSEC
  0
SECTION
  2
TABLES
  0
TABLE
  2
LTYPE
 70
     3
  0
LTYPE
  2
CONTINUOUS
 70
    64
  3
Ausgezogene Linie
 72
    65
 73
     0
 40
0.0
  0
LTYPE
  2
DASHED
 70
    64
  3
__ __ __ __ __ __ __ __ __ __ __ __ __ __ __
 72
    65
 73
     2
 40
0.75
 49
0.5
 49
-0.25
  0
LTYPE
  2
DASHDOT
 70
    64
  3
__ . __ . __ . __ . __ . __ . __ . __ . __ . __
 72
    65
 73
     4
 40
1.0
 49
0.5
 49
-0.25
 49
0.0
 49
-0.25
  0
ENDTAB
  0
TABLE
  2
LAYER
 70
     4
  0
LAYER
  2
LC-003-002-----0
 70
    64
 62
     7
  6
CONTINUOUS
  0
LAYER
  2
LC-004-006-----0
 70
    64
 62
     7
  6
CONTINUOUS
  0
LAYER
  2
LC-006-012-----0
 70
    64
 62
     7
  6
CONTINUOUS
  0
LAYER
  2
LC-008-003-----0
 70
    64
 62
     7
  6
CONTINUOUS
  0
ENDTAB
  0
TABLE
  2
STYLE
 70
     1
  0
STYLE
  2
TXT8
 70
    64
 40
0.0
 41
1.0
 50
0.0
 71
     0
 42
3.500000
  3
TXT8
  4

  0
ENDTAB
  0
ENDSEC
  0
SECTION
  2
BLOCKS
  0
ENDSEC
  0
SECTION
  2
ENTITIES
  0
LINE
  8
LC-004-006-----0
 62
     2
  6
DASHDOT
 10
-50.336803
 20
69.042267
 11
-50.336803
 21
119.784241
  0
LINE
  8
LC-004-006-----0
 62
     2
  6
DASHDOT
 10
-68.500435
 20
97.502174
 11
-17.635376
 21
97.502174
  0
LINE
  8
LC-003-002-----0
 62
     1
  6
CONTINUOUS
 10
-80.336800
 20
-0.248437
 11
-80.336800
 21
-54.248436
  0
LINE
  8
LC-003-002-----0
 62
     1
  6
CONTINUOUS
 10
-80.336800
 20
-54.248436
 11
-20.336803
 21
-54.248436
  0
LINE
  8
LC-003-002-----0
 62
     1
  6
CONTINUOUS
 10
-20.336802
 20
-0.248437
 11
-20.336802
 21
-54.248436
  0
LINE
  8
LC-003-002-----0
 62
     1
  6
CONTINUOUS
 10
-60.151756
 20
-0.248437
 11
-60.151756
 21
-54.248436
  0
LINE
  8
LC-003-002-----0
 62
     1
  6
CONTINUOUS
 10
-80.336800
 20
-0.248437
 11
-20.336803
 21
-0.248437
  0
LINE
  8
LC-003-002-----0
 62
     1
  6
CONTINUOUS
 10
-55.336803
 20
-0.248437
 11
-55.336803
 21
-54.248436
  0
LINE
  8
LC-003-002-----0
 62
     1
  6
CONTINUOUS
 10
-80.336800
 20
72.502174
 11
-80.336800
 21
109.502174
  0
LINE
  8
LC-003-002-----0
 62
     1
  6
CONTINUOUS
 10
-80.336800
 20
72.502174
 11
-20.336803
 21
72.502174
  0
LINE
  8
LC-003-002-----0
 62
     1
  6
CONTINUOUS
 10
-20.336802
 20
72.502174
 11
-20.336802
 21
109.502174
  0
LINE
  8
LC-003-002-----0
 62
     1
  6
CONTINUOUS
 10
-75.336800
 20
114.502174
 11
-60.151760
 21
114.502174
  0
LINE
  8
LC-003-002-----0
 62
     1
  6
CONTINUOUS
 10
-45.336803
 20
-0.248437
 11
-45.336803
 21
-54.248436
  0
LINE
  8
LC-003-002-----0
 62
     1
  6
CONTINUOUS
 10
-40.521847
 20
-0.248437
 11
-40.521847
 21
-54.248436
  0
CIRCLE
  8
LC-003-002-----0
 62
     1
  6
CONTINUOUS
 10
-50.336803
 20
97.502174
 40
10.000000
  0
ARC
  8
LC-003-002-----0
 62
     1
  6
CONTINUOUS
 10
-50.336803
 20
97.502174
 40
16.000000
 50
120.000003
 51
60.000002
  0
LINE
  8
LC-003-002-----0
 62
     1
  6
CONTINUOUS
 10
-55.336803
 20
106.162422
 11
-58.336803
 21
111.358582
  0
LINE
  8
LC-003-002-----0
 62
     1
  6
CONTINUOUS
 10
-25.336802
 20
114.502174
 11
-40.521847
 21
114.502174
  0
LINE
  8
LC-004-006-----0
 62
     2
  6
DASHDOT
 10
-72.836800
 20
69.042267
 11
-72.836800
 21
119.784241
  0
LINE
  8
LC-006-012-----0
 62
     2
  6
DASHED
 10
-68.836800
 20
72.502174
 11
-68.836800
 21
90.502174
  0
LINE
  8
LC-006-012-----0
 62
     2
  6
DASHED
 10
-76.836800
 20
72.502174
 11
-76.836800
 21
90.502174
  0
LINE
  8
LC-006-012-----0
 62
     2
  6
DASHED
 10
-69.536804
 20
72.502174
 11
-69.536804
 21
108.502174
  0
LINE
  8
LC-006-012-----0
 62
     2
  6
DASHED
 10
-76.136803
 20
72.502174
 11
-76.136803
 21
108.502174
  0
LINE
  8
LC-006-012-----0
 62
     2
  6
DASHED
 10
-76.836800
 20
90.502174
 11
-68.836800
 21
90.502174
  0
LINE
  8
LC-006-012-----0
 62
     2
  6
DASHED
 10
-80.336800
 20
108.502174
 11
-67.336800
 21
108.502174
  0
LINE
  8
LC-006-012-----0
 62
     2
  6
DASHED
 10
-67.336800
 20
108.502174
 11
-67.336800
 21
114.502174
  0
LINE
  8
LC-004-006-----0
 62
     2
  6
DASHDOT
 10
-27.836802
 20
69.042267
 11
-27.836802
 21
119.784241
  0
LINE
  8
LC-003-002-----0
 62
     1
  6
CONTINUOUS
 10
-80.336800
 20
109.502174
 11
-75.336800
 21
114.502174
  0
LINE
  8
LC-003-002-----0
 62
     1
  6
CONTINUOUS
 10
-20.336802
 20
109.502174
 11
-25.336802
 21
114.502174
  0
LINE
  8
LC-006-012-----0
 62
     2
  6
DASHED
 10
-31.836802
 20
72.502174
 11
-31.836802
 21
90.502174
  0
LINE
  8
LC-006-012-----0
 62
     2
  6
DASHED
 10
-23.836802
 20
72.502174
 11
-23.836802
 21
90.502174
  0
LINE
  8
LC-006-012-----0
 62
     2
  6
DASHED
 10
-31.136803
 20
72.502174
 11
-31.136803
 21
108.502174
  0
LINE
  8
LC-006-012-----0
 62
     2
  6
DASHED
 10
-24.536802
 20
72.502174
 11
-24.536802
 21
108.502174
  0
LINE
  8
LC-006-012-----0
 62
     2
  6
DASHED
 10
-23.836802
 20
90.502174
 11
-31.836802
 21
90.502174
  0
LINE
  8
LC-006-012-----0
 62
     2
  6
DASHED
 10
-20.336802
 20
108.502174
 11
-33.336803
 21
108.502174
  0
LINE
  8
LC-006-012-----0
 62
     2
  6
DASHED
 10
-33.336803
 20
108.502174
 11
-33.336803
 21
114.502174
  0
LINE
  8
LC-003-002-----0
 62
     1
  6
CONTINUOUS
 10
-58.336803
 20
-0.248437
 11
-58.336803
 21
-54.248436
  0
LINE
  8
LC-003-002-----0
 62
     1
  6
CONTINUOUS
 10
-42.336803
 20
-0.248437
 11
-42.336803
 21
-54.248436
  0
LINE
  8
LC-006-012-----0
 62
     2
  6
DASHED
 10
-26.436802
 20
104.002174
 11
-20.336802
 21
104.002174
  0
LINE
  8
LC-006-012-----0
 62
     2
  6
DASHED
 10
-26.936802
 20
99.502174
 11
-32.436802
 21
99.502174
  0
LINE
  8
LC-006-012-----0
 62
     2
  6
DASHED
 10
-26.936802
 20
95.502174
 11
-32.436802
 21
95.502174
  0
LINE
  8
LC-006-012-----0
 62
     2
  6
DASHED
 10
-32.186802
 20
100.002174
 11
-26.936802
 21
100.002174
  0
LINE
  8
LC-006-012-----0
 62
     2
  6
DASHED
 10
-26.936802
 20
95.002174
 11
-32.186802
 21
95.002174
  0
LINE
  8
LC-006-012-----0
 62
     2
  6
DASHED
 10
-24.436802
 20
94.952171
 11
-24.436802
 21
100.052170
  0
LINE
  8
LC-006-012-----0
 62
     2
  6
DASHED
 10
-35.536800
 20
96.002174
 11
-35.536800
 21
99.002174
  0
LINE
  8
LC-006-012-----0
 62
     2
  6
DASHED
 10
-32.436802
 20
99.752174
 11
-32.186802
 21
100.002174
  0
LINE
  8
LC-006-012-----0
 62
     2
  6
DASHED
 10
-32.186802
 20
95.002174
 11
-32.436802
 21
95.252174
  0
LINE
  8
LC-006-012-----0
 62
     2
  6
DASHED
 10
-32.186802
 20
95.002174
 11
-32.186802
 21
100.002174
  0
LINE
  8
LC-006-012-----0
 62
     2
  6
DASHED
 10
-24.583719
 20
100.802170
 11
-26.436802
 21
100.802170
  0
LINE
  8
LC-006-012-----0
 62
     2
  6
DASHED
 10
-24.583719
 20
94.202171
 11
-26.436802
 21
94.202171
  0
LINE
  8
LC-006-012-----0
 62
     2
  6
DASHED
 10
-24.583719
 20
99.302170
 11
-26.436802
 21
99.302170
  0
LINE
  8
LC-006-012-----0
 62
     2
  6
DASHED
 10
-24.583719
 20
95.702171
 11
-26.436802
 21
95.702171
  0
LINE
  8
LC-006-012-----0
 62
     2
  6
DASHED
 10
-32.436802
 20
95.252174
 11
-32.436802
 21
99.752174
  0
ARC
  8
LC-006-012-----0
 62
     2
  6
DASHED
 10
-35.536800
 20
97.502174
 40
11.100000
 50
350.667582
 51
9.332418
  0
ARC
  8
LC-006-012-----0
 62
     2
  6
DASHED
 10
-26.436802
 20
94.952171
 40
1.999103
 50
337.965286
 51
22.034714
  0
LINE
  8
LC-006-012-----0
 62
     2
  6
DASHED
 10
-32.436802
 20
99.252174
 11
-35.286800
 21
99.252174
  0
ARC
  8
LC-006-012-----0
 62
     2
  6
DASHED
 10
-26.436802
 20
100.052170
 40
1.999103
 50
337.965286
 51
22.034714
  0
LINE
  8
LC-006-012-----0
 62
     2
  6
DASHED
 10
-26.936802
 20
95.002174
 11
-26.936802
 21
100.002174
  0
LINE
  8
LC-006-012-----0
 62
     2
  6
DASHED
 10
-26.436802
 20
99.702171
 11
-26.936802
 21
99.702171
  0
LINE
  8
LC-006-012-----0
 62
     2
  6
DASHED
 10
-26.436802
 20
95.302170
 11
-26.936802
 21
95.302170
  0
LINE
  8
LC-006-012-----0
 62
     2
  6
DASHED
 10
-32.436802
 20
95.752174
 11
-35.286800
 21
95.752174
  0
ARC
  8
LC-006-012-----0
 62
     2
  6
DASHED
 10
-35.286800
 20
99.002174
 40
0.250000
 50
90.000003
 51
180.000009
  0
ARC
  8
LC-006-012-----0
 62
     2
  6
DASHED
 10
-35.286800
 20
96.002174
 40
0.250000
 50
180.000009
 51
269.999997
  0
LINE
  8
LC-006-012-----0
 62
     2
  6
DASHED
 10
-26.436802
 20
91.002174
 11
-20.336802
 21
91.002174
  0
LINE
  8
LC-006-012-----0
 62
     2
  6
DASHED
 10
-26.436802
 20
91.002174
 11
-26.436802
 21
104.002174
  0
LINE
  8
LC-003-002-----0
 62
     1
  6
CONTINUOUS
 10
-75.336800
 20
-0.248437
 11
-75.336800
 21
-5.748437
  0
LINE
  8
LC-004-006-----0
 62
     2
  6
DASHDOT
 10
-82.714737
 20
-11.248437
 11
-65.161263
 21
-11.248437
  0
LINE
  8
LC-004-006-----0
 62
     2
  6
DASHDOT
 10
-37.818859
 20
-27.248438
 11
-17.635372
 21
-27.248438
  0
LINE
  8
LC-006-012-----0
 62
     2
  6
DASHED
 10
-26.436802
 20
-20.748438
 11
-20.336802
 21
-20.748438
  0
LINE
  8
LC-006-012-----0
 62
     2
  6
DASHED
 10
-26.936802
 20
-25.248438
 11
-32.436802
 21
-25.248438
  0
LINE
  8
LC-006-012-----0
 62
     2
  6
DASHED
 10
-26.936802
 20
-29.248438
 11
-32.436802
 21
-29.248438
  0
LINE
  8
LC-006-012-----0
 62
     2
  6
DASHED
 10
-32.186802
 20
-24.748438
 11
-26.936802
 21
-24.748438
  0
LINE
  8
LC-006-012-----0
 62
     2
  6
DASHED
 10
-26.936802
 20
-29.748438
 11
-32.186802
 21
-29.748438
  0
LINE
  8
LC-006-012-----0
 62
     2
  6
DASHED
 10
-24.436802
 20
-29.798437
 11
-24.436802
 21
-24.698437
  0
LINE
  8
LC-006-012-----0
 62
     2
  6
DASHED
 10
-35.536800
 20
-28.748438
 11
-35.536800
 21
-25.748438
  0
LINE
  8
LC-006-012-----0
 62
     2
  6
DASHED
 10
-32.436802
 20
-24.998438
 11
-32.186802
 21
-24.748438
  0
LINE
  8
LC-006-012-----0
 62
     2
  6
DASHED
 10
-32.186802
 20
-29.748438
 11
-32.436802
 21
-29.498438
  0
LINE
  8
LC-006-012-----0
 62
     2
  6
DASHED
 10
-32.186802
 20
-29.748438
 11
-32.186802
 21
-24.748438
  0
LINE
  8
LC-006-012-----0
 62
     2
  6
DASHED
 10
-24.583719
 20
-23.948437
 11
-26.436802
 21
-23.948437
  0
LINE
  8
LC-006-012-----0
 62
     2
  6
DASHED
 10
-24.583719
 20
-30.548437
 11
-26.436802
 21
-30.548437
  0
LINE
  8
LC-006-012-----0
 62
     2
  6
DASHED
 10
-24.583719
 20
-25.448437
 11
-26.436802
 21
-25.448437
  0
LINE
  8
LC-006-012-----0
 62
     2
  6
DASHED
 10
-24.583719
 20
-29.048437
 11
-26.436802
 21
-29.048437
  0
LINE
  8
LC-006-012-----0
 62
     2
  6
DASHED
 10
-32.436802
 20
-29.498438
 11
-32.436802
 21
-24.998438
  0
ARC
  8
LC-006-012-----0
 62
     2
  6
DASHED
 10
-35.536800
 20
-27.248438
 40
11.100000
 50
350.667582
 51
9.332418
  0
ARC
  8
LC-006-012-----0
 62
     2
  6
DASHED
 10
-26.436802
 20
-29.798437
 40
1.999103
 50
337.965286
 51
22.034714
  0
LINE
  8
LC-006-012-----0
 62
     2
  6
DASHED
 10
-32.436802
 20
-25.498438
 11
-35.286800
 21
-25.498438
  0
ARC
  8
LC-006-012-----0
 62
     2
  6
DASHED
 10
-26.436802
 20
-24.698437
 40
1.999103
 50
337.965286
 51
22.034714
  0
LINE
  8
LC-006-012-----0
 62
     2
  6
DASHED
 10
-26.936802
 20
-29.748438
 11
-26.936802
 21
-24.748438
  0
LINE
  8
LC-006-012-----0
 62
     2
  6
DASHED
 10
-26.436802
 20
-25.048437
 11
-26.936802
 21
-25.048437
  0
LINE
  8
LC-006-012-----0
 62
     2
  6
DASHED
 10
-26.436802
 20
-29.448437
 11
-26.936802
 21
-29.448437
  0
LINE
  8
LC-006-012-----0
 62
     2
  6
DASHED
 10
-32.436802
 20
-28.998438
 11
-35.286800
 21
-28.998438
  0
ARC
  8
LC-006-012-----0
 62
     2
  6
DASHED
 10
-35.286800
 20
-25.748438
 40
0.250000
 50
90.000003
 51
180.000009
  0
ARC
  8
LC-006-012-----0
 62
     2
  6
DASHED
 10
-35.286800
 20
-28.748438
 40
0.250000
 50
180.000009
 51
269.999997
  0
LINE
  8
LC-006-012-----0
 62
     2
  6
DASHED
 10
-26.436802
 20
-33.748436
 11
-20.336802
 21
-33.748436
  0
LINE
  8
LC-006-012-----0
 62
     2
  6
DASHED
 10
-26.436802
 20
-33.748436
 11
-26.436802
 21
-20.748440
  0
LINE
  8
LC-008-003-----0
 62
     2
  6
CONTINUOUS
 10
-60.336803
 20
12.980318
 11
-55.786255
 21
12.015394
  0
LINE
  8
LC-004-006-----0
 62
     2
  6
DASHDOT
 10
-72.836800
 20
-4.410441
 11
-72.836800
 21
-19.006439
  0
ARC
  8
LC-008-003-----0
 62
     2
  6
CONTINUOUS
 10
-72.836800
 20
-11.248437
 40
4.000000
 50
169.214125
 51
102.770653
  0
CIRCLE
  8
LC-003-002-----0
 62
     1
  6
CONTINUOUS
 10
-72.836800
 20
-11.248437
 40
3.300000
  0
ARC
  8
LC-003-002-----0
 62
     1
  6
CONTINUOUS
 10
-72.836800
 20
-11.248437
 40
5.500000
 50
269.999997
 51
90.000003
  0
LINE
  8
LC-003-002-----0
 62
     1
  6
CONTINUOUS
 10
-72.836800
 20
-5.748437
 11
-80.336800
 21
-5.748437
  0
LINE
  8
LC-003-002-----0
 62
     1
  6
CONTINUOUS
 10
-72.836800
 20
-16.748438
 11
-80.336800
 21
-16.748438
  0
LINE
  8
LC-003-002-----0
 62
     1
  6
CONTINUOUS
 10
-75.336800
 20
-16.748438
 11
-75.336800
 21
-37.748436
  0
LINE
  8
LC-004-006-----0
 62
     2
  6
DASHDOT
 10
-82.714737
 20
-43.248436
 11
-65.161263
 21
-43.248436
  0
LINE
  8
LC-004-006-----0
 62
     2
  6
DASHDOT
 10
-72.836800
 20
-50.086433
 11
-72.836800
 21
-35.490433
  0
ARC
  8
LC-008-003-----0
 62
     2
  6
CONTINUOUS
 10
-72.836800
 20
-43.248436
 40
4.000000
 50
257.229347
 51
190.785875
  0
CIRCLE
  8
LC-003-002-----0
 62
     1
  6
CONTINUOUS
 10
-72.836800
 20
-43.248436
 40
3.300000
  0
ARC
  8
LC-003-002-----0
 62
     1
  6
CONTINUOUS
 10
-72.836800
 20
-43.248436
 40
5.500000
 50
269.999997
 51
90.000003
  0
LINE
  8
LC-003-002-----0
 62
     1
  6
CONTINUOUS
 10
-72.836800
 20
-37.748436
 11
-80.336800
 21
-37.748436
  0
LINE
  8
LC-003-002-----0
 62
     1
  6
CONTINUOUS
 10
-72.836800
 20
-48.748436
 11
-80.336800
 21
-48.748436
  0
LINE
  8
LC-003-002-----0
 62
     1
  6
CONTINUOUS
 10
-75.336800
 20
-48.748436
 11
-75.336800
 21
-54.248436
  0
LINE
  8
LC-003-002-----0
 62
     1
  6
CONTINUOUS
 10
-25.336802
 20
-0.248437
 11
-25.336802
 21
-5.748437
  0
LINE
  8
LC-004-006-----0
 62
     2
  6
DASHDOT
 10
-17.958866
 20
-11.248437
 11
-35.512341
 21
-11.248437
  0
LINE
  8
LC-004-006-----0
 62
     2
  6
DASHDOT
 10
-27.836802
 20
-4.410441
 11
-27.836802
 21
-19.006439
  0
ARC
  8
LC-008-003-----0
 62
     2
  6
CONTINUOUS
 10
-27.836802
 20
-11.248437
 40
4.000000
 50
77.229345
 51
10.785875
  0
CIRCLE
  8
LC-003-002-----0
 62
     1
  6
CONTINUOUS
 10
-27.836802
 20
-11.248437
 40
3.300000
  0
ARC
  8
LC-003-002-----0
 62
     1
  6
CONTINUOUS
 10
-27.836802
 20
-11.248437
 40
5.500000
 50
90.000003
 51
269.999997
  0
LINE
  8
LC-003-002-----0
 62
     1
  6
CONTINUOUS
 10
-27.836802
 20
-5.748437
 11
-20.336802
 21
-5.748437
  0
LINE
  8
LC-003-002-----0
 62
     1
  6
CONTINUOUS
 10
-27.836802
 20
-16.748438
 11
-20.336802
 21
-16.748438
  0
LINE
  8
LC-003-002-----0
 62
     1
  6
CONTINUOUS
 10
-25.336802
 20
-16.748438
 11
-25.336802
 21
-37.748436
  0
LINE
  8
LC-004-006-----0
 62
     2
  6
DASHDOT
 10
-17.958866
 20
-43.248436
 11
-35.512341
 21
-43.248436
  0
LINE
  8
LC-004-006-----0
 62
     2
  6
DASHDOT
 10
-27.836802
 20
-50.086433
 11
-27.836802
 21
-35.490433
  0
ARC
  8
LC-008-003-----0
 62
     2
  6
CONTINUOUS
 10
-27.836802
 20
-43.248436
 40
4.000000
 50
349.214125
 51
282.770655
  0
CIRCLE
  8
LC-003-002-----0
 62
     1
  6
CONTINUOUS
 10
-27.836802
 20
-43.248436
 40
3.300000
  0
ARC
  8
LC-003-002-----0
 62
     1
  6
CONTINUOUS
 10
-27.836802
 20
-43.248436
 40
5.500000
 50
90.000003
 51
269.999997
  0
LINE
  8
LC-003-002-----0
 62
     1
  6
CONTINUOUS
 10
-27.836802
 20
-37.748436
 11
-20.336802
 21
-37.748436
  0
LINE
  8
LC-003-002-----0
 62
     1
  6
CONTINUOUS
 10
-27.836802
 20
-48.748436
 11
-20.336802
 21
-48.748436
  0
LINE
  8
LC-003-002-----0
 62
     1
  6
CONTINUOUS
 10
-25.336802
 20
-48.748436
 11
-25.336802
 21
-54.248436
  0
LINE
  8
LC-004-006-----0
 62
     2
  6
DASHDOT
 10
-50.336803
 20
15.872635
 11
-50.336803
 21
-74.624168
  0
LINE
  8
LC-003-002-----0
 62
     1
  6
CONTINUOUS
 10
-60.336803
 20
12.980318
 11
-60.336803
 21
-0.248437
  0
LINE
  8
LC-003-002-----0
 62
     1
  6
CONTINUOUS
 10
37.615295
 20
72.502174
 11
91.615295
 21
72.502174
  0
LINE
  8
LC-008-003-----0
 62
     2
  6
CONTINUOUS
 10
-55.786255
 20
12.015394
 11
-45.160488
 21
13.498948
  0
LINE
  8
LC-008-003-----0
 62
     2
  6
CONTINUOUS
 10
-45.160488
 20
13.498948
 11
-40.336803
 21
12.997324
  0
LINE
  8
LC-008-003-----0
 62
     2
  6
CONTINUOUS
 10
-60.336803
 20
-70.935425
 11
-56.770119
 21
-71.805420
  0
LINE
  8
LC-008-003-----0
 62
     2
  6
CONTINUOUS
 10
-56.770119
 20
-71.805420
 11
-45.750809
 21
-70.173508
  0
LINE
  8
LC-008-003-----0
 62
     2
  6
CONTINUOUS
 10
-45.750809
 20
-70.173508
 11
-40.336803
 21
-70.775749
  0
LINE
  8
LC-003-002-----0
 62
     1
  6
CONTINUOUS
 10
-60.336803
 20
-54.248436
 11
-60.336803
 21
-70.935425
  0
LINE
  8
LC-003-002-----0
 62
     1
  6
CONTINUOUS
 10
-40.336803
 20
-54.248436
 11
-40.336803
 21
-70.831367
  0
LINE
  8
LC-003-002-----0
 62
     1
  6
CONTINUOUS
 10
37.615295
 20
114.502174
 11
91.615295
 21
114.502174
  0
LINE
  8
LC-003-002-----0
 62
     1
  6
CONTINUOUS
 10
-40.336803
 20
12.945328
 11
-40.336803
 21
-0.248437
  0
LINE
  8
LC-006-012-----0
 62
     2
  6
DASHED
 10
-40.336803
 20
-0.248437
 11
-40.336803
 21
-54.248436
  0
LINE
  8
LC-006-012-----0
 62
     2
  6
DASHED
 10
-60.336803
 20
-0.248437
 11
-60.336803
 21
-54.248436
  0
LINE
  8
LC-003-002-----0
 62
     1
  6
CONTINUOUS
 10
37.615295
 20
114.502174
 11
37.615295
 21
72.502174
  0
LINE
  8
LC-003-002-----0
 62
     1
  6
CONTINUOUS
 10
91.615295
 20
114.502174
 11
91.615295
 21
72.502174
  0
LINE
  8
LC-004-006-----0
 62
     2
  6
DASHDOT
 10
19.513716
 20
97.502174
 11
108.201256
 21
97.502174
  0
LINE
  8
LC-004-006-----0
 62
     2
  6
DASHDOT
 10
64.615295
 20
88.511223
 11
64.615295
 21
106.116432
  0
LINE
  8
LC-003-002-----0
 62
     1
  6
CONTINUOUS
 10
54.115295
 20
108.502174
 11
54.115295
 21
114.502174
  0
LINE
  8
LC-004-006-----0
 62
     2
  6
DASHDOT
 10
48.615295
 20
69.042267
 11
48.615295
 21
119.784241
  0
CIRCLE
  8
LC-006-012-----0
 62
     2
  6
DASHED
 10
64.615295
 20
97.502174
 40
6.500000
  0
LINE
  8
LC-006-012-----0
 62
     2
  6
DASHED
 10
61.755295
 20
99.153397
 11
64.615295
 21
100.804611
  0
LINE
  8
LC-006-012-----0
 62
     2
  6
DASHED
 10
64.615295
 20
94.199730
 11
67.475296
 21
95.850952
  0
LINE
  8
LC-006-012-----0
 62
     2
  6
DASHED
 10
61.755295
 20
95.850952
 11
61.755295
 21
99.153397
  0
LINE
  8
LC-006-012-----0
 62
     2
  6
DASHED
 10
67.475296
 20
95.850952
 11
67.475296
 21
99.153397
  0
LINE
  8
LC-006-012-----0
 62
     2
  6
DASHED
 10
64.615295
 20
94.199730
 11
61.755295
 21
95.850952
  0
LINE
  8
LC-006-012-----0
 62
     2
  6
DASHED
 10
67.475296
 20
99.153397
 11
64.615295
 21
100.804611
  0
CIRCLE
  8
LC-006-012-----0
 62
     2
  6
DASHED
 10
64.615295
 20
97.502174
 40
2.860000
  0
LINE
  8
LC-003-002-----0
 62
     1
  6
CONTINUOUS
 10
22.477116
 20
107.502174
 11
37.615295
 21
107.502174
  0
LINE
  8
LC-006-012-----0
 62
     2
  6
DASHED
 10
44.615295
 20
72.502174
 11
44.615295
 21
90.502174
  0
LINE
  8
LC-006-012-----0
 62
     2
  6
DASHED
 10
52.615295
 20
72.502174
 11
52.615295
 21
90.502174
  0
LINE
  8
LC-006-012-----0
 62
     2
  6
DASHED
 10
45.315296
 20
72.502174
 11
45.315296
 21
108.502174
  0
LINE
  8
LC-006-012-----0
 62
     2
  6
DASHED
 10
51.915295
 20
72.502174
 11
51.915295
 21
108.502174
  0
LINE
  8
LC-006-012-----0
 62
     2
  6
DASHED
 10
52.615295
 20
90.502174
 11
44.615295
 21
90.502174
  0
LINE
  8
LC-003-002-----0
 62
     1
  6
CONTINUOUS
 10
54.115295
 20
108.502174
 11
43.115295
 21
108.502174
  0
LINE
  8
LC-003-002-----0
 62
     1
  6
CONTINUOUS
 10
43.115295
 20
108.502174
 11
43.115295
 21
114.502174
  0
LINE
  8
LC-003-002-----0
 62
     1
  6
CONTINUOUS
 10
37.615295
 20
109.502174
 11
43.115295
 21
109.502174
  0
LINE
  8
LC-003-002-----0
 62
     1
  6
CONTINUOUS
 10
54.115295
 20
109.502174
 11
75.115295
 21
109.502174
  0
LINE
  8
LC-004-006-----0
 62
     2
  6
DASHDOT
 10
80.615295
 20
69.042267
 11
80.615295
 21
119.784241
  0
LINE
  8
LC-006-012-----0
 62
     2
  6
DASHED
 10
77.315292
 20
72.502174
 11
77.315292
 21
108.502174
  0
LINE
  8
LC-006-012-----0
 62
     2
  6
DASHED
 10
83.915298
 20
72.502174
 11
83.915298
 21
108.502174
  0
LINE
  8
LC-006-012-----0
 62
     2
  6
DASHED
 10
76.615295
 20
72.502174
 11
76.615295
 21
90.502174
  0
LINE
  8
LC-006-012-----0
 62
     2
  6
DASHED
 10
84.615295
 20
72.502174
 11
84.615295
 21
90.502174
  0
LINE
  8
LC-006-012-----0
 62
     2
  6
DASHED
 10
76.615295
 20
90.502174
 11
84.615295
 21
90.502174
  0
LINE
  8
LC-003-002-----0
 62
     1
  6
CONTINUOUS
 10
75.115295
 20
108.502174
 11
86.115295
 21
108.502174
  0
LINE
  8
LC-003-002-----0
 62
     1
  6
CONTINUOUS
 10
86.115295
 20
108.502174
 11
86.115295
 21
114.502174
  0
LINE
  8
LC-003-002-----0
 62
     1
  6
CONTINUOUS
 10
75.115295
 20
108.502174
 11
75.115295
 21
114.502174
  0
LINE
  8
LC-003-002-----0
 62
     1
  6
CONTINUOUS
 10
86.115295
 20
109.502174
 11
91.615295
 21
109.502174
  0
LINE
  8
LC-006-012-----0
 62
     2
  6
DASHED
 10
37.615295
 20
111.358582
 11
91.615295
 21
111.358582
  0
LINE
  8
LC-006-012-----0
 62
     2
  6
DASHED
 10
37.615295
 20
106.162422
 11
91.615295
 21
106.162422
  0
LINE
  8
LC-006-012-----0
 62
     2
  6
DASHED
 10
37.615295
 20
81.502174
 11
91.615295
 21
81.502174
  0
LINE
  8
LC-003-002-----0
 62
     1
  6
CONTINUOUS
 10
22.002617
 20
87.502174
 11
37.615295
 21
87.502174
  0
LINE
  8
LC-008-003-----0
 62
     2
  6
CONTINUOUS
 10
22.002617
 20
87.502174
 11
22.856705
 21
92.285667
  0
LINE
  8
LC-008-003-----0
 62
     2
  6
CONTINUOUS
 10
22.856705
 20
92.285667
 11
22.070120
 21
101.774284
  0
LINE
  8
LC-008-003-----0
 62
     2
  6
CONTINUOUS
 10
22.070120
 20
101.774284
 11
22.477116
 21
107.502174
  0
LINE
  8
LC-008-003-----0
 62
     2
  6
CONTINUOUS
 10
105.474075
 20
87.502174
 11
105.644852
 21
92.137405
  0
LINE
  8
LC-008-003-----0
 62
     2
  6
CONTINUOUS
 10
105.644852
 20
92.137405
 11
104.858269
 21
101.181244
  0
LINE
  8
LC-008-003-----0
 62
     2
  6
CONTINUOUS
 10
104.858269
 20
101.181244
 11
104.858269
 21
107.502174
  0
LINE
  8
LC-006-012-----0
 62
     2
  6
DASHED
 10
37.615295
 20
107.502174
 11
91.615295
 21
107.502174
  0
LINE
  8
LC-006-012-----0
 62
     2
  6
DASHED
 10
37.615295
 20
87.502174
 11
91.615295
 21
87.502174
  0
LINE
  8
LC-003-002-----0
 62
     1
  6
CONTINUOUS
 10
91.615295
 20
87.502174
 11
105.474075
 21
87.502174
  0
LINE
  8
LC-003-002-----0
 62
     1
  6
CONTINUOUS
 10
91.615295
 20
107.502174
 11
104.858269
 21
107.502174
  0
LINE
  8
LC-006-012-----0
 62
     2
  6
DASHED
 10
-66.336800
 20
-0.248437
 11
-66.336800
 21
-54.248436
  0
LINE
  8
LC-006-012-----0
 62
     2
  6
DASHED
 10
-34.336803
 20
-0.248437
 11
-34.336803
 21
-54.248436
  0
LINE
  8
LC-003-002-----0
 62
     1
  6
CONTINUOUS
 10
-58.336803
 20
111.358582
 11
-60.151756
 21
114.502174
  0
LINE
  8
LC-003-002-----0
 62
     1
  6
CONTINUOUS
 10
-45.336803
 20
106.162422
 11
-42.336803
 21
111.358582
  0
LINE
  8
LC-003-002-----0
 62
     1
  6
CONTINUOUS
 10
-42.336803
 20
111.358582
 11
-40.521847
 21
114.502174
  0
ARC
  8
LC-003-002-----0
 62
     1
  6
CONTINUOUS
 10
-50.336803
 20
97.502174
 40
14.000000
 50
120.000003
 51
60.000002
  0
ENDSEC
  0
EOF
