  0
SECTION
  2
HEADER
  9
$LIMMIN
 10
253.390091
 20
396.633362
  9
$LIMMAX
 10
483.738159
 20
622.950439
  9
$EXTMIN
 10
253.390091
 20
396.633362
  9
$EXTMAX
 10
483.738159
 20
622.950439
  0
ENDSEC
  0
SECTION
  2
TABLES
  0
TABLE
  2
LTYPE
 70
     3
  0
LTYPE
  2
CONTINUOUS
 70
    64
  3
Ausgezogene Linie
 72
    65
 73
     0
 40
0.0
  0
LTYPE
  2
DASHED
 70
    64
  3
__ __ __ __ __ __ __ __ __ __ __ __ __ __ __
 72
    65
 73
     2
 40
0.75
 49
0.5
 49
-0.25
  0
LTYPE
  2
DASHDOT
 70
    64
  3
__ . __ . __ . __ . __ . __ . __ . __ . __ . __
 72
    65
 73
     4
 40
1.0
 49
0.5
 49
-0.25
 49
0.0
 49
-0.25
  0
ENDTAB
  0
TABLE
  2
LAYER
 70
     4
  0
LAYER
  2
LC-003-002-----0
 70
    64
 62
     7
  6
CONTINUOUS
  0
LAYER
  2
LC-004-006-----0
 70
    64
 62
     7
  6
CONTINUOUS
  0
LAYER
  2
LC-006-012-----0
 70
    64
 62
     7
  6
CONTINUOUS
  0
LAYER
  2
LC-008-003-----0
 70
    64
 62
     7
  6
CONTINUOUS
  0
ENDTAB
  0
TABLE
  2
STYLE
 70
     1
  0
STYLE
  2
TXT8
 70
    64
 40
0.0
 41
1.0
 50
0.0
 71
     0
 42
3.500000
  3
TXT8
  4

  0
ENDTAB
  0
ENDSEC
  0
SECTION
  2
BLOCKS
  0
ENDSEC
  0
SECTION
  2
ENTITIES
  0
LINE
  8
LC-003-002-----0
 62
     1
  6
CONTINUOUS
 10
255.529114
 20
568.785706
 11
255.529114
 21
613.785706
  0
LINE
  8
LC-003-002-----0
 62
     1
  6
CONTINUOUS
 10
255.529114
 20
568.785706
 11
331.529114
 21
568.785706
  0
LINE
  8
LC-003-002-----0
 62
     1
  6
CONTINUOUS
 10
261.529114
 20
619.785706
 11
281.404755
 21
619.785706
  0
LINE
  8
LC-003-002-----0
 62
     1
  6
CONTINUOUS
 10
331.529114
 20
568.785706
 11
331.529114
 21
613.785706
  0
LINE
  8
LC-004-006-----0
 62
     2
  6
DASHDOT
 10
270.366211
 20
598.785706
 11
316.165253
 21
598.785706
  0
LINE
  8
LC-004-006-----0
 62
     2
  6
DASHDOT
 10
293.529114
 20
564.033936
 11
293.529114
 21
622.950439
  0
CIRCLE
  8
LC-003-002-----0
 62
     1
  6
CONTINUOUS
 10
293.529114
 20
598.785706
 40
12.500000
  0
LINE
  8
LC-003-002-----0
 62
     1
  6
CONTINUOUS
 10
287.279114
 20
609.611023
 11
283.529114
 21
616.106201
  0
ARC
  8
LC-003-002-----0
 62
     1
  6
CONTINUOUS
 10
293.529114
 20
598.785706
 40
20.000000
 50
120.000003
 51
60.000002
  0
LINE
  8
LC-003-002-----0
 62
     1
  6
CONTINUOUS
 10
299.779114
 20
609.611023
 11
303.529114
 21
616.106201
  0
LINE
  8
LC-003-002-----0
 62
     1
  6
CONTINUOUS
 10
283.529114
 20
616.106201
 11
281.404755
 21
619.785706
  0
LINE
  8
LC-003-002-----0
 62
     1
  6
CONTINUOUS
 10
325.529114
 20
619.785706
 11
305.653473
 21
619.785706
  0
LINE
  8
LC-006-012-----0
 62
     2
  6
DASHED
 10
263.529114
 20
566.269409
 11
263.529114
 21
622.950439
  0
LINE
  8
LC-006-012-----0
 62
     2
  6
DASHED
 10
268.529114
 20
568.785706
 11
268.529114
 21
590.785706
  0
LINE
  8
LC-006-012-----0
 62
     2
  6
DASHED
 10
258.529114
 20
568.785706
 11
258.529114
 21
590.785706
  0
LINE
  8
LC-006-012-----0
 62
     2
  6
DASHED
 10
267.729095
 20
568.785706
 11
267.729095
 21
611.785706
  0
LINE
  8
LC-006-012-----0
 62
     2
  6
DASHED
 10
259.329102
 20
568.785706
 11
259.329102
 21
611.785706
  0
LINE
  8
LC-006-012-----0
 62
     2
  6
DASHED
 10
258.529114
 20
590.785706
 11
268.529114
 21
590.785706
  0
LINE
  8
LC-006-012-----0
 62
     2
  6
DASHED
 10
255.529114
 20
611.785706
 11
271.029114
 21
611.785706
  0
LINE
  8
LC-006-012-----0
 62
     2
  6
DASHED
 10
271.029114
 20
611.785706
 11
271.029114
 21
619.785706
  0
LINE
  8
LC-006-012-----0
 62
     2
  6
DASHED
 10
318.529114
 20
568.785706
 11
318.529114
 21
590.785706
  0
LINE
  8
LC-006-012-----0
 62
     2
  6
DASHED
 10
328.529114
 20
568.785706
 11
328.529114
 21
590.785706
  0
LINE
  8
LC-006-012-----0
 62
     2
  6
DASHED
 10
319.329102
 20
568.785706
 11
319.329102
 21
611.785706
  0
LINE
  8
LC-006-012-----0
 62
     2
  6
DASHED
 10
327.729095
 20
568.785706
 11
327.729095
 21
611.785706
  0
LINE
  8
LC-006-012-----0
 62
     2
  6
DASHED
 10
328.529114
 20
590.785706
 11
318.529114
 21
590.785706
  0
LINE
  8
LC-006-012-----0
 62
     2
  6
DASHED
 10
316.029114
 20
611.785706
 11
316.029114
 21
619.785706
  0
LINE
  8
LC-006-012-----0
 62
     2
  6
DASHED
 10
331.529114
 20
611.785706
 11
316.029114
 21
611.785706
  0
LINE
  8
LC-006-012-----0
 62
     2
  6
DASHED
 10
323.529114
 20
566.269409
 11
323.529114
 21
622.950439
  0
LINE
  8
LC-003-002-----0
 62
     1
  6
CONTINUOUS
 10
255.529114
 20
613.785706
 11
261.529114
 21
619.785706
  0
LINE
  8
LC-003-002-----0
 62
     1
  6
CONTINUOUS
 10
331.529114
 20
613.785706
 11
325.529114
 21
619.785706
  0
LINE
  8
LC-003-002-----0
 62
     1
  6
CONTINUOUS
 10
395.737213
 20
568.785706
 11
462.737213
 21
568.785706
  0
LINE
  8
LC-003-002-----0
 62
     1
  6
CONTINUOUS
 10
462.737213
 20
568.785706
 11
462.737213
 21
619.785706
  0
LINE
  8
LC-003-002-----0
 62
     1
  6
CONTINUOUS
 10
395.737213
 20
619.785706
 11
462.737213
 21
619.785706
  0
LINE
  8
LC-006-012-----0
 62
     2
  6
DASHED
 10
321.129120
 20
593.785706
 11
331.529114
 21
593.785706
  0
LINE
  8
LC-006-012-----0
 62
     2
  6
DASHED
 10
320.629120
 20
598.285706
 11
315.129120
 21
598.285706
  0
LINE
  8
LC-006-012-----0
 62
     2
  6
DASHED
 10
320.629120
 20
602.285706
 11
315.129120
 21
602.285706
  0
LINE
  8
LC-006-012-----0
 62
     2
  6
DASHED
 10
315.379120
 20
597.785706
 11
320.629120
 21
597.785706
  0
LINE
  8
LC-006-012-----0
 62
     2
  6
DASHED
 10
320.629120
 20
602.785706
 11
315.379120
 21
602.785706
  0
LINE
  8
LC-006-012-----0
 62
     2
  6
DASHED
 10
323.129120
 20
602.835693
 11
323.129120
 21
597.735718
  0
LINE
  8
LC-006-012-----0
 62
     2
  6
DASHED
 10
312.029114
 20
601.785706
 11
312.029114
 21
598.785706
  0
LINE
  8
LC-006-012-----0
 62
     2
  6
DASHED
 10
315.129120
 20
598.035706
 11
315.379120
 21
597.785706
  0
LINE
  8
LC-006-012-----0
 62
     2
  6
DASHED
 10
315.379120
 20
602.785706
 11
315.129120
 21
602.535706
  0
LINE
  8
LC-006-012-----0
 62
     2
  6
DASHED
 10
315.379120
 20
602.785706
 11
315.379120
 21
597.785706
  0
LINE
  8
LC-006-012-----0
 62
     2
  6
DASHED
 10
321.129120
 20
606.785706
 11
321.129120
 21
593.785706
  0
LINE
  8
LC-006-012-----0
 62
     2
  6
DASHED
 10
322.982178
 20
596.985718
 11
321.129120
 21
596.985718
  0
LINE
  8
LC-006-012-----0
 62
     2
  6
DASHED
 10
322.982178
 20
603.585693
 11
321.129120
 21
603.585693
  0
LINE
  8
LC-006-012-----0
 62
     2
  6
DASHED
 10
322.982178
 20
598.485718
 11
321.129120
 21
598.485718
  0
LINE
  8
LC-006-012-----0
 62
     2
  6
DASHED
 10
322.982178
 20
602.085693
 11
321.129120
 21
602.085693
  0
LINE
  8
LC-006-012-----0
 62
     2
  6
DASHED
 10
315.129120
 20
602.535706
 11
315.129120
 21
598.035706
  0
ARC
  8
LC-006-012-----0
 62
     2
  6
DASHED
 10
312.029114
 20
600.285706
 40
11.100000
 50
350.667582
 51
9.332418
  0
ARC
  8
LC-006-012-----0
 62
     2
  6
DASHED
 10
321.129120
 20
602.835693
 40
1.999103
 50
337.965286
 51
22.034714
  0
LINE
  8
LC-006-012-----0
 62
     2
  6
DASHED
 10
315.129120
 20
598.535706
 11
312.279114
 21
598.535706
  0
ARC
  8
LC-006-012-----0
 62
     2
  6
DASHED
 10
321.129120
 20
597.735718
 40
1.999103
 50
337.965286
 51
22.034714
  0
LINE
  8
LC-006-012-----0
 62
     2
  6
DASHED
 10
320.629120
 20
602.785706
 11
320.629120
 21
597.785706
  0
LINE
  8
LC-006-012-----0
 62
     2
  6
DASHED
 10
321.129120
 20
598.085693
 11
320.629120
 21
598.085693
  0
LINE
  8
LC-006-012-----0
 62
     2
  6
DASHED
 10
321.129120
 20
602.485718
 11
320.629120
 21
602.485718
  0
LINE
  8
LC-006-012-----0
 62
     2
  6
DASHED
 10
315.129120
 20
602.035706
 11
312.279114
 21
602.035706
  0
ARC
  8
LC-006-012-----0
 62
     2
  6
DASHED
 10
312.279114
 20
598.785706
 40
0.250000
 50
180.000009
 51
269.999997
  0
ARC
  8
LC-006-012-----0
 62
     2
  6
DASHED
 10
312.279114
 20
601.785706
 40
0.250000
 50
90.000003
 51
180.000009
  0
LINE
  8
LC-006-012-----0
 62
     2
  6
DASHED
 10
321.129120
 20
606.785706
 11
331.529114
 21
606.785706
  0
LINE
  8
LC-003-002-----0
 62
     1
  6
CONTINUOUS
 10
395.737213
 20
568.785706
 11
395.737213
 21
619.785706
  0
LINE
  8
LC-003-002-----0
 62
     1
  6
CONTINUOUS
 10
255.529114
 20
487.094757
 11
255.529114
 21
420.094757
  0
LINE
  8
LC-003-002-----0
 62
     1
  6
CONTINUOUS
 10
255.529114
 20
420.094757
 11
331.529114
 21
420.094757
  0
LINE
  8
LC-003-002-----0
 62
     1
  6
CONTINUOUS
 10
331.529114
 20
487.094757
 11
331.529114
 21
420.094757
  0
LINE
  8
LC-003-002-----0
 62
     1
  6
CONTINUOUS
 10
255.529114
 20
487.094757
 11
331.529114
 21
487.094757
  0
LINE
  8
LC-003-002-----0
 62
     1
  6
CONTINUOUS
 10
281.404755
 20
487.094757
 11
281.404755
 21
420.094757
  0
LINE
  8
LC-003-002-----0
 62
     1
  6
CONTINUOUS
 10
283.529114
 20
487.094757
 11
283.529114
 21
420.094757
  0
LINE
  8
LC-003-002-----0
 62
     1
  6
CONTINUOUS
 10
287.279114
 20
487.094757
 11
287.279114
 21
420.094757
  0
LINE
  8
LC-006-012-----0
 62
     2
  6
DASHED
 10
321.129120
 20
460.094757
 11
331.529114
 21
460.094757
  0
LINE
  8
LC-006-012-----0
 62
     2
  6
DASHED
 10
320.629120
 20
455.594757
 11
315.129120
 21
455.594757
  0
LINE
  8
LC-006-012-----0
 62
     2
  6
DASHED
 10
320.629120
 20
451.594757
 11
315.129120
 21
451.594757
  0
LINE
  8
LC-006-012-----0
 62
     2
  6
DASHED
 10
315.379120
 20
456.094757
 11
320.629120
 21
456.094757
  0
LINE
  8
LC-006-012-----0
 62
     2
  6
DASHED
 10
320.629120
 20
451.094757
 11
315.379120
 21
451.094757
  0
LINE
  8
LC-006-012-----0
 62
     2
  6
DASHED
 10
323.129120
 20
451.044739
 11
323.129120
 21
456.144745
  0
LINE
  8
LC-006-012-----0
 62
     2
  6
DASHED
 10
312.029114
 20
452.094757
 11
312.029114
 21
455.094757
  0
LINE
  8
LC-006-012-----0
 62
     2
  6
DASHED
 10
315.129120
 20
455.844757
 11
315.379120
 21
456.094757
  0
LINE
  8
LC-006-012-----0
 62
     2
  6
DASHED
 10
315.379120
 20
451.094757
 11
315.129120
 21
451.344757
  0
LINE
  8
LC-006-012-----0
 62
     2
  6
DASHED
 10
315.379120
 20
451.094757
 11
315.379120
 21
456.094757
  0
LINE
  8
LC-006-012-----0
 62
     2
  6
DASHED
 10
321.129120
 20
447.094757
 11
321.129120
 21
460.094757
  0
LINE
  8
LC-006-012-----0
 62
     2
  6
DASHED
 10
322.982178
 20
456.894745
 11
321.129120
 21
456.894745
  0
LINE
  8
LC-006-012-----0
 62
     2
  6
DASHED
 10
322.982178
 20
450.294739
 11
321.129120
 21
450.294739
  0
LINE
  8
LC-006-012-----0
 62
     2
  6
DASHED
 10
322.982178
 20
455.394745
 11
321.129120
 21
455.394745
  0
LINE
  8
LC-006-012-----0
 62
     2
  6
DASHED
 10
322.982178
 20
451.794739
 11
321.129120
 21
451.794739
  0
LINE
  8
LC-006-012-----0
 62
     2
  6
DASHED
 10
315.129120
 20
451.344757
 11
315.129120
 21
455.844757
  0
ARC
  8
LC-006-012-----0
 62
     2
  6
DASHED
 10
312.029114
 20
453.594757
 40
11.100000
 50
350.667582
 51
9.332418
  0
ARC
  8
LC-006-012-----0
 62
     2
  6
DASHED
 10
321.129120
 20
451.044739
 40
1.999103
 50
337.965286
 51
22.034714
  0
LINE
  8
LC-006-012-----0
 62
     2
  6
DASHED
 10
315.129120
 20
455.344757
 11
312.279114
 21
455.344757
  0
ARC
  8
LC-006-012-----0
 62
     2
  6
DASHED
 10
321.129120
 20
456.144745
 40
1.999103
 50
337.965286
 51
22.034714
  0
LINE
  8
LC-006-012-----0
 62
     2
  6
DASHED
 10
320.629120
 20
451.094757
 11
320.629120
 21
456.094757
  0
LINE
  8
LC-006-012-----0
 62
     2
  6
DASHED
 10
321.129120
 20
455.794739
 11
320.629120
 21
455.794739
  0
LINE
  8
LC-006-012-----0
 62
     2
  6
DASHED
 10
321.129120
 20
451.394745
 11
320.629120
 21
451.394745
  0
LINE
  8
LC-006-012-----0
 62
     2
  6
DASHED
 10
315.129120
 20
451.844757
 11
312.279114
 21
451.844757
  0
ARC
  8
LC-006-012-----0
 62
     2
  6
DASHED
 10
312.279114
 20
455.094757
 40
0.250000
 50
90.000003
 51
180.000009
  0
ARC
  8
LC-006-012-----0
 62
     2
  6
DASHED
 10
312.279114
 20
452.094757
 40
0.250000
 50
180.000009
 51
269.999997
  0
LINE
  8
LC-006-012-----0
 62
     2
  6
DASHED
 10
321.129120
 20
447.094757
 11
331.529114
 21
447.094757
  0
LINE
  8
LC-004-006-----0
 62
     2
  6
DASHDOT
 10
308.994629
 20
453.594757
 11
334.223938
 21
453.594757
  0
LINE
  8
LC-004-006-----0
 62
     2
  6
DASHDOT
 10
253.390091
 20
473.594757
 11
273.456665
 21
473.594757
  0
LINE
  8
LC-004-006-----0
 62
     2
  6
DASHDOT
 10
263.529114
 20
483.554901
 11
263.529114
 21
463.655121
  0
ARC
  8
LC-003-002-----0
 62
     1
  6
CONTINUOUS
 10
263.529114
 20
473.594757
 40
7.500000
 50
269.999997
 51
90.000003
  0
ARC
  8
LC-008-003-----0
 62
     2
  6
CONTINUOUS
 10
263.529114
 20
473.594757
 40
5.000000
 50
173.247789
 51
100.662467
  0
CIRCLE
  8
LC-003-002-----0
 62
     1
  6
CONTINUOUS
 10
263.529114
 20
473.594757
 40
4.200000
  0
LINE
  8
LC-003-002-----0
 62
     1
  6
CONTINUOUS
 10
263.529114
 20
481.094757
 11
255.529114
 21
481.094757
  0
LINE
  8
LC-003-002-----0
 62
     1
  6
CONTINUOUS
 10
263.529114
 20
466.094757
 11
255.529114
 21
466.094757
  0
LINE
  8
LC-003-002-----0
 62
     1
  6
CONTINUOUS
 10
261.529114
 20
487.094757
 11
261.529114
 21
481.094757
  0
LINE
  8
LC-003-002-----0
 62
     1
  6
CONTINUOUS
 10
261.529114
 20
466.094757
 11
261.529114
 21
441.094757
  0
LINE
  8
LC-004-006-----0
 62
     2
  6
DASHDOT
 10
253.390091
 20
433.594757
 11
273.456665
 21
433.594757
  0
LINE
  8
LC-004-006-----0
 62
     2
  6
DASHDOT
 10
263.529114
 20
423.634583
 11
263.529114
 21
443.534393
  0
ARC
  8
LC-003-002-----0
 62
     1
  6
CONTINUOUS
 10
263.529114
 20
433.594757
 40
7.500000
 50
269.999997
 51
90.000003
  0
ARC
  8
LC-008-003-----0
 62
     2
  6
CONTINUOUS
 10
263.529114
 20
433.594757
 40
5.000000
 50
259.337533
 51
186.752211
  0
CIRCLE
  8
LC-003-002-----0
 62
     1
  6
CONTINUOUS
 10
263.529114
 20
433.594757
 40
4.200000
  0
LINE
  8
LC-003-002-----0
 62
     1
  6
CONTINUOUS
 10
263.529114
 20
426.094757
 11
255.529114
 21
426.094757
  0
LINE
  8
LC-003-002-----0
 62
     1
  6
CONTINUOUS
 10
263.529114
 20
441.094757
 11
255.529114
 21
441.094757
  0
LINE
  8
LC-003-002-----0
 62
     1
  6
CONTINUOUS
 10
261.529114
 20
426.094757
 11
261.529114
 21
420.094757
  0
LINE
  8
LC-003-002-----0
 62
     1
  6
CONTINUOUS
 10
305.653473
 20
487.094757
 11
305.653473
 21
420.094757
  0
LINE
  8
LC-003-002-----0
 62
     1
  6
CONTINUOUS
 10
303.529114
 20
487.094757
 11
303.529114
 21
420.094757
  0
LINE
  8
LC-003-002-----0
 62
     1
  6
CONTINUOUS
 10
299.779114
 20
487.094757
 11
299.779114
 21
420.094757
  0
LINE
  8
LC-004-006-----0
 62
     2
  6
DASHDOT
 10
323.529114
 20
483.554901
 11
323.529114
 21
463.655121
  0
ARC
  8
LC-003-002-----0
 62
     1
  6
CONTINUOUS
 10
323.529114
 20
473.594757
 40
7.500000
 50
90.000003
 51
269.999997
  0
ARC
  8
LC-008-003-----0
 62
     2
  6
CONTINUOUS
 10
323.529114
 20
473.594757
 40
5.000000
 50
79.337538
 51
6.752204
  0
CIRCLE
  8
LC-003-002-----0
 62
     1
  6
CONTINUOUS
 10
323.529114
 20
473.594757
 40
4.200000
  0
LINE
  8
LC-003-002-----0
 62
     1
  6
CONTINUOUS
 10
325.529114
 20
487.094757
 11
325.529114
 21
481.094757
  0
LINE
  8
LC-003-002-----0
 62
     1
  6
CONTINUOUS
 10
325.529114
 20
466.094757
 11
325.529114
 21
441.094757
  0
LINE
  8
LC-004-006-----0
 62
     2
  6
DASHDOT
 10
323.529114
 20
423.634583
 11
323.529114
 21
443.534393
  0
ARC
  8
LC-003-002-----0
 62
     1
  6
CONTINUOUS
 10
323.529114
 20
433.594757
 40
7.500000
 50
90.000003
 51
269.999997
  0
ARC
  8
LC-008-003-----0
 62
     2
  6
CONTINUOUS
 10
323.529114
 20
433.594757
 40
5.000000
 50
353.247796
 51
280.662462
  0
CIRCLE
  8
LC-003-002-----0
 62
     1
  6
CONTINUOUS
 10
323.529114
 20
433.594757
 40
4.200000
  0
LINE
  8
LC-003-002-----0
 62
     1
  6
CONTINUOUS
 10
325.529114
 20
426.094757
 11
325.529114
 21
420.094757
  0
LINE
  8
LC-003-002-----0
 62
     1
  6
CONTINUOUS
 10
323.529114
 20
441.094757
 11
331.529114
 21
441.094757
  0
LINE
  8
LC-003-002-----0
 62
     1
  6
CONTINUOUS
 10
323.529114
 20
426.094757
 11
331.529114
 21
426.094757
  0
LINE
  8
LC-003-002-----0
 62
     1
  6
CONTINUOUS
 10
323.529114
 20
466.094757
 11
331.529114
 21
466.094757
  0
LINE
  8
LC-003-002-----0
 62
     1
  6
CONTINUOUS
 10
323.529114
 20
481.094757
 11
331.529114
 21
481.094757
  0
LINE
  8
LC-006-012-----0
 62
     2
  6
DASHED
 10
273.529114
 20
487.094757
 11
273.529114
 21
420.094757
  0
LINE
  8
LC-006-012-----0
 62
     2
  6
DASHED
 10
313.529114
 20
487.094757
 11
313.529114
 21
420.094757
  0
LINE
  8
LC-004-006-----0
 62
     2
  6
DASHDOT
 10
293.529114
 20
507.807343
 11
293.529114
 21
396.633362
  0
LINE
  8
LC-003-002-----0
 62
     1
  6
CONTINUOUS
 10
281.029114
 20
503.307495
 11
281.029114
 21
487.094757
  0
LINE
  8
LC-003-002-----0
 62
     1
  6
CONTINUOUS
 10
306.029114
 20
503.411194
 11
306.029114
 21
487.094757
  0
LINE
  8
LC-008-003-----0
 62
     2
  6
CONTINUOUS
 10
281.029114
 20
400.872284
 11
286.224365
 21
399.462219
  0
LINE
  8
LC-008-003-----0
 62
     2
  6
CONTINUOUS
 10
286.224365
 20
399.462219
 11
297.480652
 21
400.593750
  0
LINE
  8
LC-008-003-----0
 62
     2
  6
CONTINUOUS
 10
297.480652
 20
400.593750
 11
306.029114
 21
399.138428
  0
LINE
  8
LC-008-003-----0
 62
     2
  6
CONTINUOUS
 10
281.029114
 20
503.307495
 11
286.599579
 21
502.432526
  0
LINE
  8
LC-008-003-----0
 62
     2
  6
CONTINUOUS
 10
286.599579
 20
502.432526
 11
299.356720
 21
504.129852
  0
LINE
  8
LC-008-003-----0
 62
     2
  6
CONTINUOUS
 10
299.356720
 20
504.129852
 11
306.029114
 21
503.411194
  0
LINE
  8
LC-006-012-----0
 62
     2
  6
DASHED
 10
281.029114
 20
487.094757
 11
281.029114
 21
420.094757
  0
LINE
  8
LC-006-012-----0
 62
     2
  6
DASHED
 10
306.029114
 20
487.094757
 11
306.029114
 21
420.094757
  0
LINE
  8
LC-003-002-----0
 62
     1
  6
CONTINUOUS
 10
306.029114
 20
420.094757
 11
306.029114
 21
399.138428
  0
LINE
  8
LC-003-002-----0
 62
     1
  6
CONTINUOUS
 10
281.029114
 20
420.094757
 11
281.029114
 21
400.872284
  0
LINE
  8
LC-004-006-----0
 62
     2
  6
DASHDOT
 10
333.668121
 20
473.594757
 11
313.601563
 21
473.594757
  0
LINE
  8
LC-004-006-----0
 62
     2
  6
DASHDOT
 10
333.668121
 20
433.594757
 11
313.601563
 21
433.594757
  0
LINE
  8
LC-003-002-----0
 62
     1
  6
CONTINUOUS
 10
416.737213
 20
611.785706
 11
416.737213
 21
619.785706
  0
LINE
  8
LC-006-012-----0
 62
     2
  6
DASHED
 10
404.237213
 20
568.785706
 11
404.237213
 21
590.785706
  0
LINE
  8
LC-006-012-----0
 62
     2
  6
DASHED
 10
414.237213
 20
568.785706
 11
414.237213
 21
590.785706
  0
LINE
  8
LC-006-012-----0
 62
     2
  6
DASHED
 10
405.037231
 20
568.785706
 11
405.037231
 21
611.785706
  0
LINE
  8
LC-006-012-----0
 62
     2
  6
DASHED
 10
413.437225
 20
568.785706
 11
413.437225
 21
611.785706
  0
LINE
  8
LC-006-012-----0
 62
     2
  6
DASHED
 10
409.237213
 20
566.269409
 11
409.237213
 21
622.950439
  0
LINE
  8
LC-006-012-----0
 62
     2
  6
DASHED
 10
414.237213
 20
590.785706
 11
404.237213
 21
590.785706
  0
LINE
  8
LC-003-002-----0
 62
     1
  6
CONTINUOUS
 10
401.737213
 20
611.785706
 11
401.737213
 21
619.785706
  0
LINE
  8
LC-003-002-----0
 62
     1
  6
CONTINUOUS
 10
416.737213
 20
611.785706
 11
401.737213
 21
611.785706
  0
LINE
  8
LC-004-006-----0
 62
     2
  6
DASHDOT
 10
372.259125
 20
598.785706
 11
483.738159
 21
598.785706
  0
LINE
  8
LC-004-006-----0
 62
     2
  6
DASHDOT
 10
429.237213
 20
590.277222
 11
429.237213
 21
608.687500
  0
LINE
  8
LC-003-002-----0
 62
     1
  6
CONTINUOUS
 10
441.737213
 20
611.785706
 11
441.737213
 21
619.785706
  0
LINE
  8
LC-006-012-----0
 62
     2
  6
DASHED
 10
454.237213
 20
568.785706
 11
454.237213
 21
590.785706
  0
LINE
  8
LC-006-012-----0
 62
     2
  6
DASHED
 10
444.237213
 20
568.785706
 11
444.237213
 21
590.785706
  0
CIRCLE
  8
LC-006-012-----0
 62
     2
  6
DASHED
 10
429.237213
 20
600.285706
 40
6.500000
  0
LINE
  8
LC-006-012-----0
 62
     2
  6
DASHED
 10
426.377228
 20
598.634460
 11
429.237213
 21
596.983276
  0
LINE
  8
LC-006-012-----0
 62
     2
  6
DASHED
 10
429.237213
 20
603.588135
 11
432.097229
 21
601.936951
  0
LINE
  8
LC-006-012-----0
 62
     2
  6
DASHED
 10
426.377228
 20
601.936951
 11
426.377228
 21
598.634460
  0
LINE
  8
LC-006-012-----0
 62
     2
  6
DASHED
 10
432.097229
 20
601.936951
 11
432.097229
 21
598.634460
  0
LINE
  8
LC-006-012-----0
 62
     2
  6
DASHED
 10
429.237213
 20
603.588135
 11
426.377228
 21
601.936951
  0
LINE
  8
LC-006-012-----0
 62
     2
  6
DASHED
 10
432.097229
 20
598.634460
 11
429.237213
 21
596.983276
  0
CIRCLE
  8
LC-006-012-----0
 62
     2
  6
DASHED
 10
429.237213
 20
600.285706
 40
2.860000
  0
LINE
  8
LC-006-012-----0
 62
     2
  6
DASHED
 10
453.437225
 20
568.785706
 11
453.437225
 21
611.785706
  0
LINE
  8
LC-006-012-----0
 62
     2
  6
DASHED
 10
445.037231
 20
568.785706
 11
445.037231
 21
611.785706
  0
LINE
  8
LC-006-012-----0
 62
     2
  6
DASHED
 10
449.237213
 20
566.269409
 11
449.237213
 21
622.950439
  0
LINE
  8
LC-006-012-----0
 62
     2
  6
DASHED
 10
444.237213
 20
590.785706
 11
454.237213
 21
590.785706
  0
LINE
  8
LC-003-002-----0
 62
     1
  6
CONTINUOUS
 10
456.737213
 20
611.785706
 11
456.737213
 21
619.785706
  0
LINE
  8
LC-003-002-----0
 62
     1
  6
CONTINUOUS
 10
441.737213
 20
611.785706
 11
456.737213
 21
611.785706
  0
LINE
  8
LC-003-002-----0
 62
     1
  6
CONTINUOUS
 10
395.737213
 20
613.785706
 11
401.737213
 21
613.785706
  0
LINE
  8
LC-003-002-----0
 62
     1
  6
CONTINUOUS
 10
416.737213
 20
613.785706
 11
441.737213
 21
613.785706
  0
LINE
  8
LC-003-002-----0
 62
     1
  6
CONTINUOUS
 10
456.737213
 20
613.785706
 11
462.737213
 21
613.785706
  0
LINE
  8
LC-006-012-----0
 62
     2
  6
DASHED
 10
395.737213
 20
578.785706
 11
462.737213
 21
578.785706
  0
LINE
  8
LC-006-012-----0
 62
     2
  6
DASHED
 10
395.737213
 20
616.106201
 11
462.737213
 21
616.106201
  0
LINE
  8
LC-006-012-----0
 62
     2
  6
DASHED
 10
395.737213
 20
609.611023
 11
462.737213
 21
609.611023
  0
LINE
  8
LC-003-002-----0
 62
     1
  6
CONTINUOUS
 10
376.728790
 20
611.285706
 11
395.737213
 21
611.285706
  0
LINE
  8
LC-008-003-----0
 62
     2
  6
CONTINUOUS
 10
375.958038
 20
586.285706
 11
376.705566
 21
593.236755
  0
LINE
  8
LC-008-003-----0
 62
     2
  6
CONTINUOUS
 10
376.705566
 20
593.236755
 11
375.752777
 21
605.568665
  0
LINE
  8
LC-008-003-----0
 62
     2
  6
CONTINUOUS
 10
375.752777
 20
605.568665
 11
376.728790
 21
611.285706
  0
LINE
  8
LC-008-003-----0
 62
     2
  6
CONTINUOUS
 10
480.727661
 20
586.285706
 11
481.356140
 21
592.039490
  0
LINE
  8
LC-008-003-----0
 62
     2
  6
CONTINUOUS
 10
481.356140
 20
592.039490
 11
480.085724
 21
603.054382
  0
LINE
  8
LC-008-003-----0
 62
     2
  6
CONTINUOUS
 10
480.085724
 20
603.054382
 11
480.654358
 21
611.285706
  0
LINE
  8
LC-003-002-----0
 62
     1
  6
CONTINUOUS
 10
462.737213
 20
611.285706
 11
480.654358
 21
611.285706
  0
LINE
  8
LC-003-002-----0
 62
     1
  6
CONTINUOUS
 10
462.737213
 20
586.285706
 11
480.727661
 21
586.285706
  0
LINE
  8
LC-003-002-----0
 62
     1
  6
CONTINUOUS
 10
375.958038
 20
586.285706
 11
395.737213
 21
586.285706
  0
LINE
  8
LC-006-012-----0
 62
     2
  6
DASHED
 10
395.737213
 20
586.285706
 11
462.737213
 21
586.285706
  0
LINE
  8
LC-006-012-----0
 62
     2
  6
DASHED
 10
395.737213
 20
611.285706
 11
462.737213
 21
611.285706
  0
LINE
  8
LC-004-006-----0
 62
     2
  6
DASHDOT
 10
310.709564
 20
600.285706
 11
333.361877
 21
600.285706
  0
LINE
  8
LC-004-006-----0
 62
     2
  6
DASHDOT
 10
420.781830
 20
600.285706
 11
437.623108
 21
600.285706
  0
LINE
  8
LC-003-002-----0
 62
     1
  6
CONTINUOUS
 10
303.529114
 20
616.106201
 11
305.653473
 21
619.785706
  0
ARC
  8
LC-003-002-----0
 62
     1
  6
CONTINUOUS
 10
293.529114
 20
598.785706
 40
17.000000
 50
120.000003
 51
60.000002
  0
ENDSEC
  0
EOF
