  0
SECTION
  2
HEADER
  9
$LIMMIN
 10
649.623474
 20
334.911713
  9
$LIMMAX
 10
959.900696
 20
645.821533
  9
$EXTMIN
 10
649.623474
 20
334.911713
  9
$EXTMAX
 10
959.900696
 20
645.821533
  0
ENDSEC
  0
SECTION
  2
TABLES
  0
TABLE
  2
LTYPE
 70
     3
  0
LTYPE
  2
CONTINUOUS
 70
    64
  3
Ausgezogene Linie
 72
    65
 73
     0
 40
0.0
  0
LTYPE
  2
DASHED
 70
    64
  3
__ __ __ __ __ __ __ __ __ __ __ __ __ __ __
 72
    65
 73
     2
 40
0.75
 49
0.5
 49
-0.25
  0
LTYPE
  2
DASHDOT
 70
    64
  3
__ . __ . __ . __ . __ . __ . __ . __ . __ . __
 72
    65
 73
     4
 40
1.0
 49
0.5
 49
-0.25
 49
0.0
 49
-0.25
  0
ENDTAB
  0
TABLE
  2
LAYER
 70
     4
  0
LAYER
  2
LC-003-002-----0
 70
    64
 62
     7
  6
CONTINUOUS
  0
LAYER
  2
LC-004-006-----0
 70
    64
 62
     7
  6
CONTINUOUS
  0
LAYER
  2
LC-006-012-----0
 70
    64
 62
     7
  6
CONTINUOUS
  0
LAYER
  2
LC-008-003-----0
 70
    64
 62
     7
  6
CONTINUOUS
  0
ENDTAB
  0
TABLE
  2
STYLE
 70
     1
  0
STYLE
  2
TXT8
 70
    64
 40
0.0
 41
1.0
 50
0.0
 71
     0
 42
3.500000
  3
TXT8
  4

  0
ENDTAB
  0
ENDSEC
  0
SECTION
  2
BLOCKS
  0
ENDSEC
  0
SECTION
  2
ENTITIES
  0
LINE
  8
LC-004-006-----0
 62
     2
  6
DASHDOT
 10
669.330139
 20
607.935181
 11
737.950806
 21
607.935181
  0
LINE
  8
LC-004-006-----0
 62
     2
  6
DASHDOT
 10
705.256836
 20
558.294556
 11
705.256836
 21
645.821533
  0
CIRCLE
  8
LC-003-002-----0
 62
     1
  6
CONTINUOUS
 10
705.256836
 20
607.935181
 40
20.000000
  0
LINE
  8
LC-003-002-----0
 62
     1
  6
CONTINUOUS
 10
651.256836
 20
562.935181
 11
651.256836
 21
631.935181
  0
LINE
  8
LC-003-002-----0
 62
     1
  6
CONTINUOUS
 10
651.256836
 20
562.935181
 11
759.256836
 21
562.935181
  0
LINE
  8
LC-003-002-----0
 62
     1
  6
CONTINUOUS
 10
659.256836
 20
639.935181
 11
690.334961
 21
639.935181
  0
LINE
  8
LC-003-002-----0
 62
     1
  6
CONTINUOUS
 10
759.256836
 20
562.935181
 11
759.256836
 21
631.935181
  0
LINE
  8
LC-003-002-----0
 62
     1
  6
CONTINUOUS
 10
696.804443
 20
626.061340
 11
692.155640
 21
636.030701
  0
ARC
  8
LC-003-002-----0
 62
     1
  6
CONTINUOUS
 10
705.256836
 20
607.935181
 40
31.000000
 50
115.000004
 51
65.000001
  0
LINE
  8
LC-003-002-----0
 62
     1
  6
CONTINUOUS
 10
713.709167
 20
626.061340
 11
718.357971
 21
636.030701
  0
LINE
  8
LC-003-002-----0
 62
     1
  6
CONTINUOUS
 10
692.155640
 20
636.030701
 11
690.334961
 21
639.935181
  0
LINE
  8
LC-003-002-----0
 62
     1
  6
CONTINUOUS
 10
751.256836
 20
639.935181
 11
720.178650
 21
639.935181
  0
LINE
  8
LC-003-002-----0
 62
     1
  6
CONTINUOUS
 10
651.256836
 20
631.935181
 11
659.256836
 21
639.935181
  0
LINE
  8
LC-003-002-----0
 62
     1
  6
CONTINUOUS
 10
759.256836
 20
631.935181
 11
751.256836
 21
639.935181
  0
LINE
  8
LC-004-006-----0
 62
     2
  6
DASHDOT
 10
748.256836
 20
558.294556
 11
748.256836
 21
645.821533
  0
LINE
  8
LC-006-012-----0
 62
     2
  6
DASHED
 10
754.256836
 20
562.935181
 11
754.256836
 21
588.935181
  0
LINE
  8
LC-006-012-----0
 62
     2
  6
DASHED
 10
742.256836
 20
562.935181
 11
742.256836
 21
588.935181
  0
LINE
  8
LC-006-012-----0
 62
     2
  6
DASHED
 10
753.506836
 20
562.935181
 11
753.506836
 21
629.935181
  0
LINE
  8
LC-006-012-----0
 62
     2
  6
DASHED
 10
743.006836
 20
562.935181
 11
743.006836
 21
629.935181
  0
LINE
  8
LC-006-012-----0
 62
     2
  6
DASHED
 10
742.256836
 20
588.935181
 11
754.256836
 21
588.935181
  0
LINE
  8
LC-006-012-----0
 62
     2
  6
DASHED
 10
742.456848
 20
612.935181
 11
759.256836
 21
612.935181
  0
LINE
  8
LC-006-012-----0
 62
     2
  6
DASHED
 10
741.956848
 20
608.435181
 11
736.456848
 21
608.435181
  0
LINE
  8
LC-006-012-----0
 62
     2
  6
DASHED
 10
741.956848
 20
604.435181
 11
736.456848
 21
604.435181
  0
LINE
  8
LC-006-012-----0
 62
     2
  6
DASHED
 10
736.706848
 20
608.935181
 11
741.956848
 21
608.935181
  0
LINE
  8
LC-006-012-----0
 62
     2
  6
DASHED
 10
741.956848
 20
603.935181
 11
736.706848
 21
603.935181
  0
LINE
  8
LC-006-012-----0
 62
     2
  6
DASHED
 10
744.456848
 20
603.885193
 11
744.456848
 21
608.985168
  0
LINE
  8
LC-006-012-----0
 62
     2
  6
DASHED
 10
733.356812
 20
604.935181
 11
733.356812
 21
607.935181
  0
LINE
  8
LC-006-012-----0
 62
     2
  6
DASHED
 10
736.456848
 20
608.685181
 11
736.706848
 21
608.935181
  0
LINE
  8
LC-006-012-----0
 62
     2
  6
DASHED
 10
736.706848
 20
603.935181
 11
736.456848
 21
604.185181
  0
LINE
  8
LC-006-012-----0
 62
     2
  6
DASHED
 10
736.706848
 20
603.935181
 11
736.706848
 21
608.935181
  0
LINE
  8
LC-006-012-----0
 62
     2
  6
DASHED
 10
742.456848
 20
599.935181
 11
742.456848
 21
612.935181
  0
LINE
  8
LC-006-012-----0
 62
     2
  6
DASHED
 10
744.309937
 20
609.735168
 11
742.456848
 21
609.735168
  0
LINE
  8
LC-006-012-----0
 62
     2
  6
DASHED
 10
744.309937
 20
603.135193
 11
742.456848
 21
603.135193
  0
LINE
  8
LC-006-012-----0
 62
     2
  6
DASHED
 10
744.309937
 20
608.235168
 11
742.456848
 21
608.235168
  0
LINE
  8
LC-006-012-----0
 62
     2
  6
DASHED
 10
744.309937
 20
604.635193
 11
742.456848
 21
604.635193
  0
LINE
  8
LC-006-012-----0
 62
     2
  6
DASHED
 10
736.456848
 20
604.185181
 11
736.456848
 21
608.685181
  0
ARC
  8
LC-006-012-----0
 62
     2
  6
DASHED
 10
733.356812
 20
606.435181
 40
11.100000
 50
350.667582
 51
9.332418
  0
ARC
  8
LC-006-012-----0
 62
     2
  6
DASHED
 10
742.456848
 20
603.885193
 40
1.999103
 50
337.965286
 51
22.034714
  0
LINE
  8
LC-006-012-----0
 62
     2
  6
DASHED
 10
736.456848
 20
608.185181
 11
733.606812
 21
608.185181
  0
ARC
  8
LC-006-012-----0
 62
     2
  6
DASHED
 10
742.456848
 20
608.985168
 40
1.999103
 50
337.965286
 51
22.034714
  0
LINE
  8
LC-006-012-----0
 62
     2
  6
DASHED
 10
741.956848
 20
603.935181
 11
741.956848
 21
608.935181
  0
LINE
  8
LC-006-012-----0
 62
     2
  6
DASHED
 10
742.456848
 20
608.635193
 11
741.956848
 21
608.635193
  0
LINE
  8
LC-006-012-----0
 62
     2
  6
DASHED
 10
742.456848
 20
604.235168
 11
741.956848
 21
604.235168
  0
LINE
  8
LC-006-012-----0
 62
     2
  6
DASHED
 10
736.456848
 20
604.685181
 11
733.606812
 21
604.685181
  0
ARC
  8
LC-006-012-----0
 62
     2
  6
DASHED
 10
733.606812
 20
607.935181
 40
0.250000
 50
90.000003
 51
180.000009
  0
ARC
  8
LC-006-012-----0
 62
     2
  6
DASHED
 10
733.606812
 20
604.935181
 40
0.250000
 50
180.000009
 51
269.999997
  0
LINE
  8
LC-006-012-----0
 62
     2
  6
DASHED
 10
742.456848
 20
599.935181
 11
759.256836
 21
599.935181
  0
LINE
  8
LC-006-012-----0
 62
     2
  6
DASHED
 10
759.256836
 20
629.935181
 11
739.256836
 21
629.935181
  0
LINE
  8
LC-006-012-----0
 62
     2
  6
DASHED
 10
739.256836
 20
629.935181
 11
739.256836
 21
639.935181
  0
LINE
  8
LC-004-006-----0
 62
     2
  6
DASHDOT
 10
662.256836
 20
558.294556
 11
662.256836
 21
645.821533
  0
LINE
  8
LC-006-012-----0
 62
     2
  6
DASHED
 10
656.256836
 20
562.935181
 11
656.256836
 21
588.935181
  0
LINE
  8
LC-006-012-----0
 62
     2
  6
DASHED
 10
668.256836
 20
562.935181
 11
668.256836
 21
588.935181
  0
LINE
  8
LC-006-012-----0
 62
     2
  6
DASHED
 10
657.006836
 20
562.935181
 11
657.006836
 21
629.935181
  0
LINE
  8
LC-006-012-----0
 62
     2
  6
DASHED
 10
667.506836
 20
562.935181
 11
667.506836
 21
629.935181
  0
LINE
  8
LC-006-012-----0
 62
     2
  6
DASHED
 10
668.256836
 20
588.935181
 11
656.256836
 21
588.935181
  0
LINE
  8
LC-006-012-----0
 62
     2
  6
DASHED
 10
671.256836
 20
629.935181
 11
671.256836
 21
639.935181
  0
LINE
  8
LC-006-012-----0
 62
     2
  6
DASHED
 10
651.256836
 20
629.935181
 11
671.256836
 21
629.935181
  0
LINE
  8
LC-004-006-----0
 62
     2
  6
DASHDOT
 10
732.182800
 20
606.435181
 11
761.585693
 21
606.435181
  0
LINE
  8
LC-003-002-----0
 62
     1
  6
CONTINUOUS
 10
651.256836
 20
461.012146
 11
651.256836
 21
370.012146
  0
LINE
  8
LC-003-002-----0
 62
     1
  6
CONTINUOUS
 10
651.256836
 20
370.012146
 11
759.256836
 21
370.012146
  0
LINE
  8
LC-003-002-----0
 62
     1
  6
CONTINUOUS
 10
759.256836
 20
461.012146
 11
759.256836
 21
370.012146
  0
LINE
  8
LC-003-002-----0
 62
     1
  6
CONTINUOUS
 10
651.256836
 20
461.012146
 11
759.256836
 21
461.012146
  0
LINE
  8
LC-003-002-----0
 62
     1
  6
CONTINUOUS
 10
659.256836
 20
461.012146
 11
659.256836
 21
453.512146
  0
LINE
  8
LC-006-012-----0
 62
     2
  6
DASHED
 10
742.456848
 20
422.012146
 11
759.256836
 21
422.012146
  0
LINE
  8
LC-006-012-----0
 62
     2
  6
DASHED
 10
741.956848
 20
417.512146
 11
736.456848
 21
417.512146
  0
LINE
  8
LC-006-012-----0
 62
     2
  6
DASHED
 10
741.956848
 20
413.512146
 11
736.456848
 21
413.512146
  0
LINE
  8
LC-006-012-----0
 62
     2
  6
DASHED
 10
736.706848
 20
418.012146
 11
741.956848
 21
418.012146
  0
LINE
  8
LC-006-012-----0
 62
     2
  6
DASHED
 10
741.956848
 20
413.012146
 11
736.706848
 21
413.012146
  0
LINE
  8
LC-006-012-----0
 62
     2
  6
DASHED
 10
744.456848
 20
412.962158
 11
744.456848
 21
418.062134
  0
LINE
  8
LC-006-012-----0
 62
     2
  6
DASHED
 10
733.356812
 20
414.012146
 11
733.356812
 21
417.012146
  0
LINE
  8
LC-006-012-----0
 62
     2
  6
DASHED
 10
736.456848
 20
417.762146
 11
736.706848
 21
418.012146
  0
LINE
  8
LC-006-012-----0
 62
     2
  6
DASHED
 10
736.706848
 20
413.012146
 11
736.456848
 21
413.262146
  0
LINE
  8
LC-006-012-----0
 62
     2
  6
DASHED
 10
736.706848
 20
413.012146
 11
736.706848
 21
418.012146
  0
LINE
  8
LC-006-012-----0
 62
     2
  6
DASHED
 10
742.456848
 20
409.012146
 11
742.456848
 21
422.012146
  0
LINE
  8
LC-006-012-----0
 62
     2
  6
DASHED
 10
744.309937
 20
418.812134
 11
742.456848
 21
418.812134
  0
LINE
  8
LC-006-012-----0
 62
     2
  6
DASHED
 10
744.309937
 20
412.212158
 11
742.456848
 21
412.212158
  0
LINE
  8
LC-006-012-----0
 62
     2
  6
DASHED
 10
744.309937
 20
417.312134
 11
742.456848
 21
417.312134
  0
LINE
  8
LC-006-012-----0
 62
     2
  6
DASHED
 10
744.309937
 20
413.712158
 11
742.456848
 21
413.712158
  0
LINE
  8
LC-006-012-----0
 62
     2
  6
DASHED
 10
736.456848
 20
413.262146
 11
736.456848
 21
417.762146
  0
ARC
  8
LC-006-012-----0
 62
     2
  6
DASHED
 10
733.356812
 20
415.512146
 40
11.100000
 50
350.667582
 51
9.332418
  0
ARC
  8
LC-006-012-----0
 62
     2
  6
DASHED
 10
742.456848
 20
412.962158
 40
1.999103
 50
337.965286
 51
22.034714
  0
LINE
  8
LC-006-012-----0
 62
     2
  6
DASHED
 10
736.456848
 20
417.262146
 11
733.606812
 21
417.262146
  0
ARC
  8
LC-006-012-----0
 62
     2
  6
DASHED
 10
742.456848
 20
418.062134
 40
1.999103
 50
337.965286
 51
22.034714
  0
LINE
  8
LC-006-012-----0
 62
     2
  6
DASHED
 10
741.956848
 20
413.012146
 11
741.956848
 21
418.012146
  0
LINE
  8
LC-006-012-----0
 62
     2
  6
DASHED
 10
742.456848
 20
417.712158
 11
741.956848
 21
417.712158
  0
LINE
  8
LC-006-012-----0
 62
     2
  6
DASHED
 10
742.456848
 20
413.312134
 11
741.956848
 21
413.312134
  0
LINE
  8
LC-006-012-----0
 62
     2
  6
DASHED
 10
736.456848
 20
413.762146
 11
733.606812
 21
413.762146
  0
ARC
  8
LC-006-012-----0
 62
     2
  6
DASHED
 10
733.606812
 20
417.012146
 40
0.250000
 50
90.000003
 51
180.000009
  0
ARC
  8
LC-006-012-----0
 62
     2
  6
DASHED
 10
733.606812
 20
414.012146
 40
0.250000
 50
180.000009
 51
269.999997
  0
LINE
  8
LC-006-012-----0
 62
     2
  6
DASHED
 10
742.456848
 20
409.012146
 11
759.256836
 21
409.012146
  0
LINE
  8
LC-004-006-----0
 62
     2
  6
DASHDOT
 10
732.182800
 20
415.512146
 11
761.585693
 21
415.512146
  0
LINE
  8
LC-004-006-----0
 62
     2
  6
DASHDOT
 10
705.256836
 20
493.866577
 11
705.256836
 21
334.911713
  0
LINE
  8
LC-004-006-----0
 62
     2
  6
DASHDOT
 10
649.623474
 20
444.512146
 11
674.013672
 21
444.512146
  0
LINE
  8
LC-004-006-----0
 62
     2
  6
DASHDOT
 10
662.256836
 20
456.802460
 11
662.256836
 21
430.973969
  0
CIRCLE
  8
LC-003-002-----0
 62
     1
  6
CONTINUOUS
 10
662.256836
 20
444.512146
 40
5.250000
  0
ARC
  8
LC-008-003-----0
 62
     2
  6
CONTINUOUS
 10
662.256836
 20
444.512146
 40
6.000000
 50
78.296665
 51
12.085175
  0
LINE
  8
LC-003-002-----0
 62
     1
  6
CONTINUOUS
 10
659.256836
 20
435.512146
 11
659.256836
 21
395.512146
  0
ARC
  8
LC-003-002-----0
 62
     1
  6
CONTINUOUS
 10
662.256836
 20
444.512146
 40
9.000000
 50
269.999997
 51
90.000003
  0
LINE
  8
LC-003-002-----0
 62
     1
  6
CONTINUOUS
 10
662.256836
 20
453.512146
 11
651.256836
 21
453.512146
  0
LINE
  8
LC-003-002-----0
 62
     1
  6
CONTINUOUS
 10
662.256836
 20
435.512146
 11
651.256836
 21
435.512146
  0
LINE
  8
LC-004-006-----0
 62
     2
  6
DASHDOT
 10
649.623474
 20
386.512146
 11
674.013672
 21
386.512146
  0
LINE
  8
LC-004-006-----0
 62
     2
  6
DASHDOT
 10
662.256836
 20
374.221832
 11
662.256836
 21
400.050323
  0
CIRCLE
  8
LC-003-002-----0
 62
     1
  6
CONTINUOUS
 10
662.256836
 20
386.512146
 40
5.250000
  0
ARC
  8
LC-008-003-----0
 62
     2
  6
CONTINUOUS
 10
662.256836
 20
386.512146
 40
6.000000
 50
347.914825
 51
281.703335
  0
ARC
  8
LC-003-002-----0
 62
     1
  6
CONTINUOUS
 10
662.256836
 20
386.512146
 40
9.000000
 50
269.999997
 51
90.000003
  0
LINE
  8
LC-003-002-----0
 62
     1
  6
CONTINUOUS
 10
662.256836
 20
377.512146
 11
651.256836
 21
377.512146
  0
LINE
  8
LC-003-002-----0
 62
     1
  6
CONTINUOUS
 10
662.256836
 20
395.512146
 11
651.256836
 21
395.512146
  0
LINE
  8
LC-003-002-----0
 62
     1
  6
CONTINUOUS
 10
659.256836
 20
377.512146
 11
659.256836
 21
370.012146
  0
LINE
  8
LC-003-002-----0
 62
     1
  6
CONTINUOUS
 10
751.256836
 20
461.012146
 11
751.256836
 21
453.512146
  0
LINE
  8
LC-004-006-----0
 62
     2
  6
DASHDOT
 10
760.890198
 20
444.512146
 11
736.499939
 21
444.512146
  0
LINE
  8
LC-004-006-----0
 62
     2
  6
DASHDOT
 10
748.256836
 20
456.802460
 11
748.256836
 21
430.973969
  0
CIRCLE
  8
LC-003-002-----0
 62
     1
  6
CONTINUOUS
 10
748.256836
 20
444.512146
 40
5.250000
  0
ARC
  8
LC-008-003-----0
 62
     2
  6
CONTINUOUS
 10
748.256836
 20
444.512146
 40
6.000000
 50
167.914819
 51
101.703334
  0
LINE
  8
LC-003-002-----0
 62
     1
  6
CONTINUOUS
 10
751.256836
 20
435.512146
 11
751.256836
 21
395.512146
  0
ARC
  8
LC-003-002-----0
 62
     1
  6
CONTINUOUS
 10
748.256836
 20
444.512146
 40
9.000000
 50
90.000003
 51
269.999997
  0
LINE
  8
LC-003-002-----0
 62
     1
  6
CONTINUOUS
 10
748.256836
 20
453.512146
 11
759.256836
 21
453.512146
  0
LINE
  8
LC-003-002-----0
 62
     1
  6
CONTINUOUS
 10
748.256836
 20
435.512146
 11
759.256836
 21
435.512146
  0
LINE
  8
LC-004-006-----0
 62
     2
  6
DASHDOT
 10
760.890198
 20
386.512146
 11
736.499939
 21
386.512146
  0
LINE
  8
LC-004-006-----0
 62
     2
  6
DASHDOT
 10
748.256836
 20
374.221832
 11
748.256836
 21
400.050323
  0
CIRCLE
  8
LC-003-002-----0
 62
     1
  6
CONTINUOUS
 10
748.256836
 20
386.512146
 40
5.250000
  0
ARC
  8
LC-008-003-----0
 62
     2
  6
CONTINUOUS
 10
748.256836
 20
386.512146
 40
6.000000
 50
258.296666
 51
192.085181
  0
ARC
  8
LC-003-002-----0
 62
     1
  6
CONTINUOUS
 10
748.256836
 20
386.512146
 40
9.000000
 50
90.000003
 51
269.999997
  0
LINE
  8
LC-003-002-----0
 62
     1
  6
CONTINUOUS
 10
748.256836
 20
377.512146
 11
759.256836
 21
377.512146
  0
LINE
  8
LC-003-002-----0
 62
     1
  6
CONTINUOUS
 10
748.256836
 20
395.512146
 11
759.256836
 21
395.512146
  0
LINE
  8
LC-003-002-----0
 62
     1
  6
CONTINUOUS
 10
751.256836
 20
377.512146
 11
751.256836
 21
370.012146
  0
LINE
  8
LC-006-012-----0
 62
     2
  6
DASHED
 10
674.256836
 20
461.012146
 11
674.256836
 21
370.012146
  0
LINE
  8
LC-003-002-----0
 62
     1
  6
CONTINUOUS
 10
690.334961
 20
461.012146
 11
690.334961
 21
370.012146
  0
LINE
  8
LC-003-002-----0
 62
     1
  6
CONTINUOUS
 10
692.155640
 20
461.012146
 11
692.155640
 21
370.012146
  0
LINE
  8
LC-003-002-----0
 62
     1
  6
CONTINUOUS
 10
696.804443
 20
461.012146
 11
696.804443
 21
370.012146
  0
LINE
  8
LC-006-012-----0
 62
     2
  6
DASHED
 10
736.256836
 20
461.012146
 11
736.256836
 21
370.012146
  0
LINE
  8
LC-003-002-----0
 62
     1
  6
CONTINUOUS
 10
720.178650
 20
461.012146
 11
720.178650
 21
370.012146
  0
LINE
  8
LC-003-002-----0
 62
     1
  6
CONTINUOUS
 10
718.357971
 20
461.012146
 11
718.357971
 21
370.012146
  0
LINE
  8
LC-003-002-----0
 62
     1
  6
CONTINUOUS
 10
713.709167
 20
461.012146
 11
713.709167
 21
370.012146
  0
LINE
  8
LC-003-002-----0
 62
     1
  6
CONTINUOUS
 10
685.256836
 20
488.938354
 11
685.256836
 21
461.012146
  0
LINE
  8
LC-003-002-----0
 62
     1
  6
CONTINUOUS
 10
725.256836
 20
489.290344
 11
725.256836
 21
461.012146
  0
LINE
  8
LC-008-003-----0
 62
     2
  6
CONTINUOUS
 10
685.256836
 20
488.938354
 11
694.418396
 21
487.378662
  0
LINE
  8
LC-008-003-----0
 62
     2
  6
CONTINUOUS
 10
694.418396
 20
487.378662
 11
717.456543
 21
490.328186
  0
LINE
  8
LC-008-003-----0
 62
     2
  6
CONTINUOUS
 10
717.456543
 20
490.328186
 11
725.256836
 21
489.290344
  0
LINE
  8
LC-008-003-----0
 62
     2
  6
CONTINUOUS
 10
685.256836
 20
340.208557
 11
693.983704
 21
338.516693
  0
LINE
  8
LC-008-003-----0
 62
     2
  6
CONTINUOUS
 10
693.983704
 20
338.516693
 11
715.717834
 21
343.104828
  0
LINE
  8
LC-008-003-----0
 62
     2
  6
CONTINUOUS
 10
715.717834
 20
343.104828
 11
725.256836
 21
342.132935
  0
LINE
  8
LC-006-012-----0
 62
     2
  6
DASHED
 10
685.256836
 20
461.012146
 11
685.256836
 21
370.012146
  0
LINE
  8
LC-006-012-----0
 62
     2
  6
DASHED
 10
725.256836
 20
461.012146
 11
725.256836
 21
370.012146
  0
LINE
  8
LC-003-002-----0
 62
     1
  6
CONTINUOUS
 10
685.256836
 20
370.012146
 11
685.256836
 21
340.208557
  0
LINE
  8
LC-003-002-----0
 62
     1
  6
CONTINUOUS
 10
725.256836
 20
370.012146
 11
725.256836
 21
342.132935
  0
LINE
  8
LC-003-002-----0
 62
     1
  6
CONTINUOUS
 10
838.044128
 20
562.935181
 11
929.044128
 21
562.935181
  0
LINE
  8
LC-003-002-----0
 62
     1
  6
CONTINUOUS
 10
929.044128
 20
562.935181
 11
929.044128
 21
639.935181
  0
LINE
  8
LC-003-002-----0
 62
     1
  6
CONTINUOUS
 10
838.044128
 20
639.935181
 11
929.044128
 21
639.935181
  0
LINE
  8
LC-003-002-----0
 62
     1
  6
CONTINUOUS
 10
838.044128
 20
562.935181
 11
838.044128
 21
639.935181
  0
LINE
  8
LC-003-002-----0
 62
     1
  6
CONTINUOUS
 10
838.044128
 20
631.935181
 11
845.544128
 21
631.935181
  0
LINE
  8
LC-004-006-----0
 62
     2
  6
DASHDOT
 10
883.544128
 20
596.932190
 11
883.544128
 21
616.387268
  0
LINE
  8
LC-003-002-----0
 62
     1
  6
CONTINUOUS
 10
921.544128
 20
629.935181
 11
921.544128
 21
639.935181
  0
CIRCLE
  8
LC-006-012-----0
 62
     2
  6
DASHED
 10
883.544128
 20
606.435181
 40
6.500000
  0
LINE
  8
LC-006-012-----0
 62
     2
  6
DASHED
 10
880.684082
 20
604.783936
 11
883.544128
 21
603.132751
  0
LINE
  8
LC-006-012-----0
 62
     2
  6
DASHED
 10
883.544128
 20
609.737610
 11
886.404114
 21
608.086426
  0
LINE
  8
LC-006-012-----0
 62
     2
  6
DASHED
 10
880.684082
 20
608.086426
 11
880.684082
 21
604.783936
  0
LINE
  8
LC-006-012-----0
 62
     2
  6
DASHED
 10
886.404114
 20
608.086426
 11
886.404114
 21
604.783936
  0
LINE
  8
LC-006-012-----0
 62
     2
  6
DASHED
 10
883.544128
 20
609.737610
 11
880.684082
 21
608.086426
  0
LINE
  8
LC-006-012-----0
 62
     2
  6
DASHED
 10
886.404114
 20
604.783936
 11
883.544128
 21
603.132751
  0
CIRCLE
  8
LC-006-012-----0
 62
     2
  6
DASHED
 10
883.544128
 20
606.435181
 40
2.860000
  0
LINE
  8
LC-004-006-----0
 62
     2
  6
DASHDOT
 10
875.088684
 20
606.435181
 11
891.929993
 21
606.435181
  0
LINE
  8
LC-004-006-----0
 62
     2
  6
DASHDOT
 10
807.324585
 20
607.935181
 11
959.900696
 21
607.935181
  0
LINE
  8
LC-004-006-----0
 62
     2
  6
DASHDOT
 10
912.544128
 20
558.294556
 11
912.544128
 21
645.016113
  0
LINE
  8
LC-006-012-----0
 62
     2
  6
DASHED
 10
918.544128
 20
562.935181
 11
918.544128
 21
588.935181
  0
LINE
  8
LC-006-012-----0
 62
     2
  6
DASHED
 10
906.544128
 20
562.935181
 11
906.544128
 21
588.935181
  0
LINE
  8
LC-006-012-----0
 62
     2
  6
DASHED
 10
917.794128
 20
562.935181
 11
917.794128
 21
629.935181
  0
LINE
  8
LC-006-012-----0
 62
     2
  6
DASHED
 10
907.294128
 20
562.935181
 11
907.294128
 21
629.935181
  0
LINE
  8
LC-006-012-----0
 62
     2
  6
DASHED
 10
906.544128
 20
588.935181
 11
918.544128
 21
588.935181
  0
LINE
  8
LC-003-002-----0
 62
     1
  6
CONTINUOUS
 10
903.544128
 20
629.935181
 11
903.544128
 21
639.935181
  0
LINE
  8
LC-003-002-----0
 62
     1
  6
CONTINUOUS
 10
921.544128
 20
629.935181
 11
903.544128
 21
629.935181
  0
LINE
  8
LC-003-002-----0
 62
     1
  6
CONTINUOUS
 10
921.544128
 20
631.935181
 11
929.044128
 21
631.935181
  0
LINE
  8
LC-003-002-----0
 62
     1
  6
CONTINUOUS
 10
845.544128
 20
629.935181
 11
845.544128
 21
639.935181
  0
LINE
  8
LC-004-006-----0
 62
     2
  6
DASHDOT
 10
854.544128
 20
558.294556
 11
854.544128
 21
645.016113
  0
LINE
  8
LC-006-012-----0
 62
     2
  6
DASHED
 10
848.544128
 20
562.935181
 11
848.544128
 21
588.935181
  0
LINE
  8
LC-006-012-----0
 62
     2
  6
DASHED
 10
860.544128
 20
562.935181
 11
860.544128
 21
588.935181
  0
LINE
  8
LC-006-012-----0
 62
     2
  6
DASHED
 10
849.294128
 20
562.935181
 11
849.294128
 21
629.935181
  0
LINE
  8
LC-006-012-----0
 62
     2
  6
DASHED
 10
859.794128
 20
562.935181
 11
859.794128
 21
629.935181
  0
LINE
  8
LC-006-012-----0
 62
     2
  6
DASHED
 10
860.544128
 20
588.935181
 11
848.544128
 21
588.935181
  0
LINE
  8
LC-003-002-----0
 62
     1
  6
CONTINUOUS
 10
863.544128
 20
629.935181
 11
863.544128
 21
639.935181
  0
LINE
  8
LC-003-002-----0
 62
     1
  6
CONTINUOUS
 10
845.544128
 20
629.935181
 11
863.544128
 21
629.935181
  0
LINE
  8
LC-003-002-----0
 62
     1
  6
CONTINUOUS
 10
863.544128
 20
631.935181
 11
903.544128
 21
631.935181
  0
LINE
  8
LC-006-012-----0
 62
     2
  6
DASHED
 10
838.044128
 20
576.935181
 11
929.044128
 21
576.935181
  0
LINE
  8
LC-006-012-----0
 62
     2
  6
DASHED
 10
838.044128
 20
636.030701
 11
929.044128
 21
636.030701
  0
LINE
  8
LC-008-003-----0
 62
     2
  6
CONTINUOUS
 10
953.788391
 20
587.935181
 11
954.566711
 21
596.541626
  0
LINE
  8
LC-008-003-----0
 62
     2
  6
CONTINUOUS
 10
954.566711
 20
596.541626
 11
951.455261
 21
617.989685
  0
LINE
  8
LC-008-003-----0
 62
     2
  6
CONTINUOUS
 10
951.455261
 20
617.989685
 11
951.455261
 21
627.935181
  0
LINE
  8
LC-008-003-----0
 62
     2
  6
CONTINUOUS
 10
814.972778
 20
587.935181
 11
813.992065
 21
597.546997
  0
LINE
  8
LC-008-003-----0
 62
     2
  6
CONTINUOUS
 10
813.992065
 20
597.546997
 11
813.992065
 21
613.968201
  0
LINE
  8
LC-008-003-----0
 62
     2
  6
CONTINUOUS
 10
813.992065
 20
613.968201
 11
812.852051
 21
627.935181
  0
LINE
  8
LC-003-002-----0
 62
     1
  6
CONTINUOUS
 10
812.852051
 20
627.935181
 11
838.044128
 21
627.935181
  0
LINE
  8
LC-006-012-----0
 62
     2
  6
DASHED
 10
838.044128
 20
627.935181
 11
929.044128
 21
627.935181
  0
LINE
  8
LC-003-002-----0
 62
     1
  6
CONTINUOUS
 10
814.972778
 20
587.935181
 11
838.044128
 21
587.935181
  0
LINE
  8
LC-006-012-----0
 62
     2
  6
DASHED
 10
838.044128
 20
587.935181
 11
929.044128
 21
587.935181
  0
LINE
  8
LC-003-002-----0
 62
     1
  6
CONTINUOUS
 10
929.044128
 20
587.935181
 11
953.788391
 21
587.935181
  0
LINE
  8
LC-003-002-----0
 62
     1
  6
CONTINUOUS
 10
929.044128
 20
627.935181
 11
951.455261
 21
627.935181
  0
LINE
  8
LC-006-012-----0
 62
     2
  6
DASHED
 10
838.044128
 20
626.061340
 11
929.044128
 21
626.061340
  0
LINE
  8
LC-003-002-----0
 62
     1
  6
CONTINUOUS
 10
718.357971
 20
636.030701
 11
720.178650
 21
639.935181
  0
ARC
  8
LC-003-002-----0
 62
     1
  6
CONTINUOUS
 10
705.256836
 20
607.935181
 40
26.000000
 50
115.000004
 51
65.000001
  0
ENDSEC
  0
EOF
