  0
SECTION
  2
HEADER
  9
$LIMMIN
 10
-73.665695
 20
6.909228
  9
$LIMMAX
 10
73.645386
 20
176.166077
  9
$EXTMIN
 10
-73.665695
 20
6.909228
  9
$EXTMAX
 10
73.645386
 20
176.166077
  0
ENDSEC
  0
SECTION
  2
TABLES
  0
TABLE
  2
LTYPE
 70
     3
  0
LTYPE
  2
CONTINUOUS
 70
    64
  3
Ausgezogene Linie
 72
    65
 73
     0
 40
0.0
  0
LTYPE
  2
DASHED
 70
    64
  3
__ __ __ __ __ __ __ __ __ __ __ __ __ __ __
 72
    65
 73
     2
 40
0.75
 49
0.5
 49
-0.25
  0
LTYPE
  2
DASHDOT
 70
    64
  3
__ . __ . __ . __ . __ . __ . __ . __ . __ . __
 72
    65
 73
     4
 40
1.0
 49
0.5
 49
-0.25
 49
0.0
 49
-0.25
  0
ENDTAB
  0
TABLE
  2
LAYER
 70
     5
  0
LAYER
  2
LC-INFO-1-1-MM-A1-0
 70
    64
 62
     7
  6
CONTINUOUS
  0
LAYER
  2
LC-003-002-----0
 70
    64
 62
     7
  6
CONTINUOUS
  0
LAYER
  2
LC-004-006-----0
 70
    64
 62
     7
  6
CONTINUOUS
  0
LAYER
  2
LC-006-012-----0
 70
    64
 62
     7
  6
CONTINUOUS
  0
LAYER
  2
LC-008-003-----0
 70
    64
 62
     7
  6
CONTINUOUS
  0
ENDTAB
  0
TABLE
  2
STYLE
 70
     1
  0
STYLE
  2
TXT8
 70
    64
 40
0.0
 41
1.0
 50
0.0
 71
     0
 42
3.500000
  3
TXT8
  4

  0
ENDTAB
  0
ENDSEC
  0
SECTION
  2
BLOCKS
  0
ENDSEC
  0
SECTION
  2
ENTITIES
  0
ARC
  8
LC-003-002-----0
 62
     1
  6
CONTINUOUS
 10
39.812569
 20
174.304047
 40
4.940077
 50
179.858415
 51
206.935515
  0
ARC
  8
LC-003-002-----0
 62
     1
  6
CONTINUOUS
 10
39.235359
 20
173.993713
 40
4.284937
 50
206.732399
 51
236.534741
  0
ARC
  8
LC-003-002-----0
 62
     1
  6
CONTINUOUS
 10
38.886246
 20
173.480637
 40
3.664414
 50
236.664692
 51
269.785263
  0
ARC
  8
LC-003-002-----0
 62
     1
  6
CONTINUOUS
 10
38.858772
 20
173.480637
 40
3.664415
 50
270.214814
 51
303.335378
  0
ARC
  8
LC-003-002-----0
 62
     1
  6
CONTINUOUS
 10
38.509659
 20
173.993713
 40
4.284938
 50
303.465329
 51
333.267662
  0
ARC
  8
LC-003-002-----0
 62
     1
  6
CONTINUOUS
 10
37.932446
 20
174.304047
 40
4.940078
 50
333.064551
 51
0.141642
  0
CIRCLE
  8
LC-003-002-----0
 62
     1
  6
CONTINUOUS
 10
-51.165699
 20
155.316254
 40
10.000000
  0
LINE
  8
LC-003-002-----0
 62
     1
  6
CONTINUOUS
 10
-73.665695
 20
136.316254
 11
-73.665695
 21
168.316254
  0
LINE
  8
LC-003-002-----0
 62
     1
  6
CONTINUOUS
 10
-73.665695
 20
136.316254
 11
-28.665699
 21
136.316254
  0
LINE
  8
LC-003-002-----0
 62
     1
  6
CONTINUOUS
 10
-28.665697
 20
136.316254
 11
-28.665697
 21
168.316254
  0
LINE
  8
LC-003-002-----0
 62
     1
  6
CONTINUOUS
 10
-34.665699
 20
174.316254
 11
-67.665695
 21
174.316254
  0
LINE
  8
LC-004-006-----0
 62
     2
  6
DASHDOT
 10
-51.165699
 20
169.167099
 11
-51.165699
 21
141.328445
  0
LINE
  8
LC-004-006-----0
 62
     2
  6
DASHDOT
 10
-65.325912
 20
155.316254
 11
-37.153767
 21
155.316254
  0
CIRCLE
  8
LC-003-002-----0
 62
     1
  6
CONTINUOUS
 10
-51.165699
 20
155.316254
 40
8.000000
  0
CIRCLE
  8
LC-003-002-----0
 62
     1
  6
CONTINUOUS
 10
-51.165699
 20
155.316254
 40
12.000000
  0
LINE
  8
LC-003-002-----0
 62
     1
  6
CONTINUOUS
 10
-73.665695
 20
168.316254
 11
-67.665695
 21
174.316254
  0
LINE
  8
LC-003-002-----0
 62
     1
  6
CONTINUOUS
 10
-28.665697
 20
168.316254
 11
-34.665699
 21
174.316254
  0
LINE
  8
LC-004-006-----0
 62
     2
  6
DASHDOT
 10
-34.165699
 20
176.166077
 11
-34.165699
 21
133.700333
  0
LINE
  8
LC-006-012-----0
 62
     2
  6
DASHED
 10
-31.665697
 20
147.316254
 11
-31.665697
 21
136.316254
  0
LINE
  8
LC-006-012-----0
 62
     2
  6
DASHED
 10
-36.665699
 20
147.316254
 11
-36.665699
 21
136.316254
  0
LINE
  8
LC-006-012-----0
 62
     2
  6
DASHED
 10
-36.665699
 20
147.316254
 11
-31.665695
 21
147.316254
  0
LINE
  8
LC-006-012-----0
 62
     2
  6
DASHED
 10
-32.015697
 20
154.316254
 11
-32.015697
 21
136.316254
  0
LINE
  8
LC-006-012-----0
 62
     2
  6
DASHED
 10
-36.315697
 20
154.316254
 11
-36.315697
 21
136.316254
  0
LINE
  8
LC-006-012-----0
 62
     2
  6
DASHED
 10
-30.165697
 20
154.316254
 11
-38.165699
 21
154.316254
  0
LINE
  8
LC-006-012-----0
 62
     2
  6
DASHED
 10
-30.165697
 20
169.816254
 11
-30.165697
 21
154.316254
  0
LINE
  8
LC-006-012-----0
 62
     2
  6
DASHED
 10
-38.165699
 20
174.316254
 11
-38.165699
 21
154.316254
  0
LINE
  8
LC-004-006-----0
 62
     2
  6
DASHDOT
 10
-68.165695
 20
176.166077
 11
-68.165695
 21
133.700333
  0
LINE
  8
LC-006-012-----0
 62
     2
  6
DASHED
 10
-70.665695
 20
147.316254
 11
-70.665695
 21
136.316254
  0
LINE
  8
LC-006-012-----0
 62
     2
  6
DASHED
 10
-65.665695
 20
147.316254
 11
-65.665695
 21
136.316254
  0
LINE
  8
LC-006-012-----0
 62
     2
  6
DASHED
 10
-65.665695
 20
147.316254
 11
-70.665695
 21
147.316254
  0
LINE
  8
LC-006-012-----0
 62
     2
  6
DASHED
 10
-70.315697
 20
154.316254
 11
-70.315697
 21
136.316254
  0
LINE
  8
LC-006-012-----0
 62
     2
  6
DASHED
 10
-66.015701
 20
154.316254
 11
-66.015701
 21
136.316254
  0
LINE
  8
LC-006-012-----0
 62
     2
  6
DASHED
 10
-64.165695
 20
174.316254
 11
-64.165695
 21
154.316254
  0
LINE
  8
LC-006-012-----0
 62
     2
  6
DASHED
 10
-72.165695
 20
154.316254
 11
-64.165695
 21
154.316254
  0
LINE
  8
LC-006-012-----0
 62
     2
  6
DASHED
 10
-72.165695
 20
169.816254
 11
-72.165695
 21
154.316254
  0
LINE
  8
LC-003-002-----0
 62
     1
  6
CONTINUOUS
 10
23.872509
 20
136.316254
 11
53.872509
 21
136.316254
  0
LINE
  8
LC-003-002-----0
 62
     1
  6
CONTINUOUS
 10
23.872509
 20
168.316254
 11
53.872509
 21
168.316254
  0
LINE
  8
LC-003-002-----0
 62
     1
  6
CONTINUOUS
 10
23.872509
 20
174.316254
 11
53.872509
 21
174.316254
  0
LINE
  8
LC-003-002-----0
 62
     1
  6
CONTINUOUS
 10
23.872509
 20
174.316254
 11
23.872509
 21
136.316254
  0
LINE
  8
LC-003-002-----0
 62
     1
  6
CONTINUOUS
 10
53.872509
 20
174.316254
 11
53.872509
 21
136.316254
  0
LINE
  8
LC-004-006-----0
 62
     2
  6
DASHDOT
 10
38.872509
 20
176.166077
 11
38.872509
 21
133.700333
  0
LINE
  8
LC-006-012-----0
 62
     2
  6
DASHED
 10
41.372509
 20
147.316254
 11
41.372509
 21
136.316254
  0
LINE
  8
LC-006-012-----0
 62
     2
  6
DASHED
 10
40.872509
 20
147.316254
 11
40.872509
 21
136.316254
  0
LINE
  8
LC-006-012-----0
 62
     2
  6
DASHED
 10
36.872509
 20
147.316254
 11
36.872509
 21
136.316254
  0
LINE
  8
LC-006-012-----0
 62
     2
  6
DASHED
 10
36.372509
 20
147.316254
 11
41.372509
 21
147.316254
  0
LINE
  8
LC-006-012-----0
 62
     2
  6
DASHED
 10
41.022511
 20
154.316254
 11
41.022511
 21
147.316254
  0
LINE
  8
LC-006-012-----0
 62
     2
  6
DASHED
 10
36.722507
 20
154.316254
 11
36.722507
 21
147.316254
  0
LINE
  8
LC-006-012-----0
 62
     2
  6
DASHED
 10
42.872509
 20
154.316254
 11
34.872509
 21
154.316254
  0
LINE
  8
LC-006-012-----0
 62
     2
  6
DASHED
 10
34.872509
 20
174.316254
 11
34.872509
 21
154.316254
  0
LINE
  8
LC-006-012-----0
 62
     2
  6
DASHED
 10
42.872509
 20
174.316254
 11
42.872509
 21
154.316254
  0
LINE
  8
LC-006-012-----0
 62
     2
  6
DASHED
 10
36.372509
 20
147.316254
 11
36.372509
 21
136.316254
  0
LINE
  8
LC-004-006-----0
 62
     2
  6
DASHDOT
 10
6.231327
 20
155.316254
 11
73.645386
 21
155.316254
  0
CIRCLE
  8
LC-003-002-----0
 62
     1
  6
CONTINUOUS
 10
-34.165699
 20
44.989262
 40
4.000000
  0
LINE
  8
LC-006-012-----0
 62
     2
  6
DASHED
 10
23.872509
 20
167.316254
 11
53.872509
 21
167.316254
  0
LINE
  8
LC-006-012-----0
 62
     2
  6
DASHED
 10
23.872509
 20
143.316254
 11
53.872509
 21
143.316254
  0
LINE
  8
LC-008-003-----0
 62
     2
  6
CONTINUOUS
 10
70.838074
 20
147.316254
 11
70.712730
 21
150.919525
  0
LINE
  8
LC-008-003-----0
 62
     2
  6
CONTINUOUS
 10
70.712730
 20
150.919525
 11
69.584785
 21
158.769547
  0
LINE
  8
LC-008-003-----0
 62
     2
  6
CONTINUOUS
 10
69.584785
 20
158.769547
 11
69.918694
 21
163.316254
  0
LINE
  8
LC-008-003-----0
 62
     2
  6
CONTINUOUS
 10
9.487963
 20
147.316254
 11
8.712806
 21
151.772797
  0
LINE
  8
LC-008-003-----0
 62
     2
  6
CONTINUOUS
 10
8.712806
 20
151.772797
 11
8.712806
 21
160.476059
  0
LINE
  8
LC-008-003-----0
 62
     2
  6
CONTINUOUS
 10
8.712806
 20
160.476059
 11
8.360821
 21
163.316254
  0
LINE
  8
LC-003-002-----0
 62
     1
  6
CONTINUOUS
 10
8.360821
 20
163.316254
 11
23.872509
 21
163.316254
  0
LINE
  8
LC-006-012-----0
 62
     2
  6
DASHED
 10
23.872509
 20
163.316254
 11
53.872509
 21
163.316254
  0
LINE
  8
LC-003-002-----0
 62
     1
  6
CONTINUOUS
 10
9.487963
 20
147.316254
 11
23.872509
 21
147.316254
  0
LINE
  8
LC-006-012-----0
 62
     2
  6
DASHED
 10
23.872509
 20
147.316254
 11
53.872509
 21
147.316254
  0
LINE
  8
LC-003-002-----0
 62
     1
  6
CONTINUOUS
 10
53.872509
 20
147.316254
 11
70.838074
 21
147.316254
  0
LINE
  8
LC-003-002-----0
 62
     1
  6
CONTINUOUS
 10
53.872509
 20
163.316254
 11
69.918694
 21
163.316254
  0
LINE
  8
LC-003-002-----0
 62
     1
  6
CONTINUOUS
 10
-73.665695
 20
59.989262
 11
-73.665695
 21
29.989258
  0
LINE
  8
LC-003-002-----0
 62
     1
  6
CONTINUOUS
 10
-28.665697
 20
59.989262
 11
-28.665697
 21
29.989258
  0
LINE
  8
LC-003-002-----0
 62
     1
  6
CONTINUOUS
 10
-28.665697
 20
29.989260
 11
-73.665695
 21
29.989260
  0
LINE
  8
LC-003-002-----0
 62
     1
  6
CONTINUOUS
 10
-28.665697
 20
59.989262
 11
-73.665695
 21
59.989262
  0
LINE
  8
LC-004-006-----0
 62
     2
  6
DASHDOT
 10
-51.165699
 20
77.827873
 11
-51.165699
 21
6.909228
  0
LINE
  8
LC-006-012-----0
 62
     2
  6
DASHED
 10
-63.165699
 20
59.989262
 11
-63.165699
 21
29.989258
  0
LINE
  8
LC-006-012-----0
 62
     2
  6
DASHED
 10
-39.165699
 20
59.989262
 11
-39.165699
 21
29.989258
  0
LINE
  8
LC-003-002-----0
 62
     1
  6
CONTINUOUS
 10
-59.165699
 20
74.484207
 11
-59.165699
 21
59.989262
  0
LINE
  8
LC-008-003-----0
 62
     2
  6
CONTINUOUS
 10
-59.165699
 20
12.446026
 11
-54.296841
 21
11.525234
  0
LINE
  8
LC-008-003-----0
 62
     2
  6
CONTINUOUS
 10
-54.296841
 20
11.525234
 11
-47.640118
 21
12.574327
  0
LINE
  8
LC-008-003-----0
 62
     2
  6
CONTINUOUS
 10
-47.640118
 20
12.574327
 11
-43.165699
 21
12.574327
  0
LINE
  8
LC-008-003-----0
 62
     2
  6
CONTINUOUS
 10
-59.165699
 20
74.484207
 11
-55.128933
 21
73.841324
  0
LINE
  8
LC-008-003-----0
 62
     2
  6
CONTINUOUS
 10
-55.128933
 20
73.841324
 11
-47.362755
 21
74.680595
  0
LINE
  8
LC-008-003-----0
 62
     2
  6
CONTINUOUS
 10
-47.362755
 20
74.680595
 11
-43.165699
 21
74.266472
  0
LINE
  8
LC-006-012-----0
 62
     2
  6
DASHED
 10
-59.165699
 20
59.989262
 11
-59.165699
 21
29.989258
  0
LINE
  8
LC-003-002-----0
 62
     1
  6
CONTINUOUS
 10
-43.165699
 20
74.266472
 11
-43.165699
 21
59.989262
  0
LINE
  8
LC-006-012-----0
 62
     2
  6
DASHED
 10
-43.165699
 20
59.989262
 11
-43.165699
 21
29.989258
  0
LINE
  8
LC-003-002-----0
 62
     1
  6
CONTINUOUS
 10
-59.165699
 20
29.989260
 11
-59.165699
 21
12.446026
  0
LINE
  8
LC-003-002-----0
 62
     1
  6
CONTINUOUS
 10
-43.165699
 20
29.989260
 11
-43.165699
 21
12.574327
  0
LINE
  8
LC-004-006-----0
 62
     2
  6
DASHDOT
 10
-68.165695
 20
52.413200
 11
-68.165695
 21
37.550686
  0
LINE
  8
LC-004-006-----0
 62
     2
  6
DASHDOT
 10
-73.665695
 20
44.989262
 11
-62.171928
 21
44.989262
  0
CIRCLE
  8
LC-003-002-----0
 62
     1
  6
CONTINUOUS
 10
-68.165695
 20
44.989262
 40
4.000000
  0
CIRCLE
  8
LC-003-002-----0
 62
     1
  6
CONTINUOUS
 10
-68.165695
 20
44.989262
 40
2.000000
  0
ARC
  8
LC-008-003-----0
 62
     2
  6
CONTINUOUS
 10
-68.165695
 20
44.989262
 40
2.500000
 50
84.053476
 51
5.313784
  0
LINE
  8
LC-003-002-----0
 62
     1
  6
CONTINUOUS
 10
-67.665695
 20
59.989262
 11
-67.665695
 21
48.957886
  0
LINE
  8
LC-003-002-----0
 62
     1
  6
CONTINUOUS
 10
-67.665695
 20
41.020634
 11
-67.665695
 21
29.989260
  0
LINE
  8
LC-004-006-----0
 62
     2
  6
DASHDOT
 10
-34.165699
 20
52.413200
 11
-34.165699
 21
37.550686
  0
LINE
  8
LC-004-006-----0
 62
     2
  6
DASHDOT
 10
-28.665697
 20
44.989262
 11
-40.159470
 21
44.989262
  0
CIRCLE
  8
LC-003-002-----0
 62
     1
  6
CONTINUOUS
 10
-34.165699
 20
44.989262
 40
2.000000
  0
ARC
  8
LC-008-003-----0
 62
     2
  6
CONTINUOUS
 10
-34.165699
 20
44.989262
 40
2.500000
 50
174.686213
 51
95.946522
  0
LINE
  8
LC-003-002-----0
 62
     1
  6
CONTINUOUS
 10
-34.665699
 20
59.989262
 11
-34.665699
 21
48.957886
  0
LINE
  8
LC-003-002-----0
 62
     1
  6
CONTINUOUS
 10
-34.665699
 20
41.020634
 11
-34.665699
 21
29.989260
  0
ENDSEC
  0
EOF
