  0
SECTION
  2
HEADER
  9
$LIMMIN
 10
144.847641
 20
-9.333307
  9
$LIMMAX
 10
331.822113
 20
188.492386
  9
$EXTMIN
 10
144.847641
 20
-9.333307
  9
$EXTMAX
 10
331.822113
 20
188.492386
  0
ENDSEC
  0
SECTION
  2
TABLES
  0
TABLE
  2
LTYPE
 70
     3
  0
LTYPE
  2
CONTINUOUS
 70
    64
  3
Ausgezogene Linie
 72
    65
 73
     0
 40
0.0
  0
LTYPE
  2
DASHED
 70
    64
  3
__ __ __ __ __ __ __ __ __ __ __ __ __ __ __
 72
    65
 73
     2
 40
0.75
 49
0.5
 49
-0.25
  0
LTYPE
  2
DASHDOT
 70
    64
  3
__ . __ . __ . __ . __ . __ . __ . __ . __ . __
 72
    65
 73
     4
 40
1.0
 49
0.5
 49
-0.25
 49
0.0
 49
-0.25
  0
ENDTAB
  0
TABLE
  2
LAYER
 70
     5
  0
LAYER
  2
LC-INFO-1-1-MM-A1-0
 70
    64
 62
     7
  6
CONTINUOUS
  0
LAYER
  2
LC-003-002-----0
 70
    64
 62
     7
  6
CONTINUOUS
  0
LAYER
  2
LC-004-006-----0
 70
    64
 62
     7
  6
CONTINUOUS
  0
LAYER
  2
LC-006-012-----0
 70
    64
 62
     7
  6
CONTINUOUS
  0
LAYER
  2
LC-008-003-----0
 70
    64
 62
     7
  6
CONTINUOUS
  0
ENDTAB
  0
TABLE
  2
STYLE
 70
     1
  0
STYLE
  2
TXT8
 70
    64
 40
0.0
 41
1.0
 50
0.0
 71
     0
 42
3.500000
  3
TXT8
  4

  0
ENDTAB
  0
ENDSEC
  0
SECTION
  2
BLOCKS
  0
ENDSEC
  0
SECTION
  2
ENTITIES
  0
ARC
  8
LC-003-002-----0
 62
     1
  6
CONTINUOUS
 10
293.474426
 20
186.594330
 40
9.682627
 50
179.734802
 51
202.498734
  0
ARC
  8
LC-003-002-----0
 62
     1
  6
CONTINUOUS
 10
290.906281
 20
185.455261
 40
6.874435
 50
201.918250
 51
230.589430
  0
ARC
  8
LC-003-002-----0
 62
     1
  6
CONTINUOUS
 10
289.352997
 20
183.571960
 40
4.433238
 50
230.646763
 51
269.210120
  0
ARC
  8
LC-003-002-----0
 62
     1
  6
CONTINUOUS
 10
289.230774
 20
183.571960
 40
4.433238
 50
270.789875
 51
309.353239
  0
ARC
  8
LC-003-002-----0
 62
     1
  6
CONTINUOUS
 10
287.677490
 20
185.455261
 40
6.874435
 50
309.410571
 51
338.081756
  0
ARC
  8
LC-003-002-----0
 62
     1
  6
CONTINUOUS
 10
285.109375
 20
186.594330
 40
9.682627
 50
337.501270
 51
0.265202
  0
LINE
  8
LC-004-006-----0
 62
     2
  6
DASHDOT
 10
195.546249
 20
159.639145
 11
158.546249
 21
159.639145
  0
CIRCLE
  8
LC-003-002-----0
 62
     1
  6
CONTINUOUS
 10
177.046249
 20
159.639145
 40
16.000000
  0
CIRCLE
  8
LC-003-002-----0
 62
     1
  6
CONTINUOUS
 10
201.046249
 20
39.130516
 40
5.500000
  0
LINE
  8
LC-003-002-----0
 62
     1
  6
CONTINUOUS
 10
146.046249
 20
132.639145
 11
146.046249
 21
177.639145
  0
LINE
  8
LC-003-002-----0
 62
     1
  6
CONTINUOUS
 10
146.046249
 20
132.639145
 11
208.046249
 21
132.639145
  0
LINE
  8
LC-003-002-----0
 62
     1
  6
CONTINUOUS
 10
199.046249
 20
186.639145
 11
155.046249
 21
186.639145
  0
LINE
  8
LC-003-002-----0
 62
     1
  6
CONTINUOUS
 10
208.046249
 20
132.639145
 11
208.046249
 21
177.639145
  0
LINE
  8
LC-003-002-----0
 62
     1
  6
CONTINUOUS
 10
146.046249
 20
177.639145
 11
155.046249
 21
186.639145
  0
LINE
  8
LC-003-002-----0
 62
     1
  6
CONTINUOUS
 10
208.046249
 20
177.639145
 11
199.046249
 21
186.639145
  0
LINE
  8
LC-004-006-----0
 62
     2
  6
DASHDOT
 10
177.046249
 20
139.631714
 11
177.046249
 21
180.348938
  0
LINE
  8
LC-004-006-----0
 62
     2
  6
DASHDOT
 10
195.546249
 20
159.639145
 11
206.546249
 21
159.639145
  0
CIRCLE
  8
LC-003-002-----0
 62
     1
  6
CONTINUOUS
 10
177.046249
 20
159.639145
 40
12.500000
  0
CIRCLE
  8
LC-003-002-----0
 62
     1
  6
CONTINUOUS
 10
177.046249
 20
159.639145
 40
17.500000
  0
LINE
  8
LC-004-006-----0
 62
     2
  6
DASHDOT
 10
201.046249
 20
130.111908
 11
201.046249
 21
188.492386
  0
LINE
  8
LC-006-012-----0
 62
     2
  6
DASHED
 10
205.046249
 20
132.639145
 11
205.046249
 21
150.639145
  0
LINE
  8
LC-006-012-----0
 62
     2
  6
DASHED
 10
197.046249
 20
132.639145
 11
197.046249
 21
150.639145
  0
LINE
  8
LC-006-012-----0
 62
     2
  6
DASHED
 10
197.046249
 20
150.639145
 11
205.046249
 21
150.639145
  0
LINE
  8
LC-006-012-----0
 62
     2
  6
DASHED
 10
204.346252
 20
132.639145
 11
204.346252
 21
159.639145
  0
LINE
  8
LC-006-012-----0
 62
     2
  6
DASHED
 10
197.746262
 20
132.639145
 11
197.746262
 21
159.639145
  0
LINE
  8
LC-006-012-----0
 62
     2
  6
DASHED
 10
206.546249
 20
159.639145
 11
206.546249
 21
179.139145
  0
LINE
  8
LC-006-012-----0
 62
     2
  6
DASHED
 10
195.546249
 20
159.639145
 11
195.546249
 21
186.639145
  0
LINE
  8
LC-004-006-----0
 62
     2
  6
DASHDOT
 10
158.546249
 20
159.639145
 11
147.546249
 21
159.639145
  0
LINE
  8
LC-004-006-----0
 62
     2
  6
DASHDOT
 10
153.046249
 20
130.111908
 11
153.046249
 21
188.492386
  0
LINE
  8
LC-006-012-----0
 62
     2
  6
DASHED
 10
149.746262
 20
132.639145
 11
149.746262
 21
159.639145
  0
LINE
  8
LC-006-012-----0
 62
     2
  6
DASHED
 10
157.046249
 20
132.639145
 11
157.046249
 21
150.639145
  0
LINE
  8
LC-006-012-----0
 62
     2
  6
DASHED
 10
157.046249
 20
150.639145
 11
149.046249
 21
150.639145
  0
LINE
  8
LC-006-012-----0
 62
     2
  6
DASHED
 10
149.046249
 20
132.639145
 11
149.046249
 21
150.639145
  0
LINE
  8
LC-006-012-----0
 62
     2
  6
DASHED
 10
158.546249
 20
159.639145
 11
158.546249
 21
186.639145
  0
LINE
  8
LC-006-012-----0
 62
     2
  6
DASHED
 10
147.546249
 20
159.639145
 11
147.546249
 21
179.139145
  0
LINE
  8
LC-003-002-----0
 62
     1
  6
CONTINUOUS
 10
269.291901
 20
132.639145
 11
309.291901
 21
132.639145
  0
LINE
  8
LC-003-002-----0
 62
     1
  6
CONTINUOUS
 10
309.291901
 20
132.639145
 11
309.291901
 21
186.639145
  0
LINE
  8
LC-003-002-----0
 62
     1
  6
CONTINUOUS
 10
269.291901
 20
186.639145
 11
309.291901
 21
186.639145
  0
LINE
  8
LC-003-002-----0
 62
     1
  6
CONTINUOUS
 10
269.291901
 20
177.639145
 11
309.291901
 21
177.639145
  0
LINE
  8
LC-003-002-----0
 62
     1
  6
CONTINUOUS
 10
269.291901
 20
132.639145
 11
269.291901
 21
186.639145
  0
LINE
  8
LC-004-006-----0
 62
     2
  6
DASHDOT
 10
289.291901
 20
130.111908
 11
289.291901
 21
188.492386
  0
LINE
  8
LC-006-012-----0
 62
     2
  6
DASHED
 10
269.291901
 20
177.139145
 11
309.291901
 21
177.139145
  0
LINE
  8
LC-006-012-----0
 62
     2
  6
DASHED
 10
293.291901
 20
132.639145
 11
293.291901
 21
150.639145
  0
LINE
  8
LC-006-012-----0
 62
     2
  6
DASHED
 10
285.291901
 20
132.639145
 11
285.291901
 21
150.639145
  0
LINE
  8
LC-006-012-----0
 62
     2
  6
DASHED
 10
285.291901
 20
150.639145
 11
293.291901
 21
150.639145
  0
LINE
  8
LC-006-012-----0
 62
     2
  6
DASHED
 10
292.591888
 20
132.639145
 11
292.591888
 21
159.639145
  0
LINE
  8
LC-006-012-----0
 62
     2
  6
DASHED
 10
285.991882
 20
132.639145
 11
285.991882
 21
159.639145
  0
LINE
  8
LC-004-006-----0
 62
     2
  6
DASHDOT
 10
245.317245
 20
158.639145
 11
331.822113
 21
158.639145
  0
LINE
  8
LC-006-012-----0
 62
     2
  6
DASHED
 10
283.791901
 20
159.639145
 11
283.791901
 21
186.639145
  0
LINE
  8
LC-006-012-----0
 62
     2
  6
DASHED
 10
294.791901
 20
159.639145
 11
294.791901
 21
186.639145
  0
LINE
  8
LC-004-006-----0
 62
     2
  6
DASHDOT
 10
283.791901
 20
159.639145
 11
294.791901
 21
159.639145
  0
LINE
  8
LC-006-012-----0
 62
     2
  6
DASHED
 10
269.291901
 20
142.139145
 11
309.291901
 21
142.139145
  0
LINE
  8
LC-008-003-----0
 62
     2
  6
CONTINUOUS
 10
249.664215
 20
147.139145
 11
250.323959
 21
152.610580
  0
LINE
  8
LC-008-003-----0
 62
     2
  6
CONTINUOUS
 10
250.323959
 20
152.610580
 11
249.489502
 21
164.773697
  0
LINE
  8
LC-008-003-----0
 62
     2
  6
CONTINUOUS
 10
249.489502
 20
164.773697
 11
249.838409
 21
172.139145
  0
LINE
  8
LC-008-003-----0
 62
     2
  6
CONTINUOUS
 10
329.043610
 20
147.139145
 11
328.206146
 21
152.400864
  0
LINE
  8
LC-008-003-----0
 62
     2
  6
CONTINUOUS
 10
328.206146
 20
152.400864
 11
327.371704
 21
164.773697
  0
LINE
  8
LC-008-003-----0
 62
     2
  6
CONTINUOUS
 10
327.371704
 20
164.773697
 11
328.034027
 21
172.139145
  0
LINE
  8
LC-003-002-----0
 62
     1
  6
CONTINUOUS
 10
249.838409
 20
172.139145
 11
269.291901
 21
172.139145
  0
LINE
  8
LC-006-012-----0
 62
     2
  6
DASHED
 10
269.291901
 20
172.139145
 11
309.291901
 21
172.139145
  0
LINE
  8
LC-003-002-----0
 62
     1
  6
CONTINUOUS
 10
249.664215
 20
147.139145
 11
269.291901
 21
147.139145
  0
LINE
  8
LC-006-012-----0
 62
     2
  6
DASHED
 10
269.291901
 20
147.139145
 11
309.291901
 21
147.139145
  0
LINE
  8
LC-003-002-----0
 62
     1
  6
CONTINUOUS
 10
309.291901
 20
147.139145
 11
329.043610
 21
147.139145
  0
LINE
  8
LC-003-002-----0
 62
     1
  6
CONTINUOUS
 10
309.291901
 20
172.139145
 11
328.034027
 21
172.139145
  0
LINE
  8
LC-003-002-----0
 62
     1
  6
CONTINUOUS
 10
146.046249
 20
59.130516
 11
146.046249
 21
19.130516
  0
LINE
  8
LC-003-002-----0
 62
     1
  6
CONTINUOUS
 10
146.046249
 20
19.130516
 11
208.046249
 21
19.130516
  0
LINE
  8
LC-003-002-----0
 62
     1
  6
CONTINUOUS
 10
208.046249
 20
59.130516
 11
208.046249
 21
19.130516
  0
LINE
  8
LC-006-012-----0
 62
     2
  6
DASHED
 10
156.346252
 20
132.639145
 11
156.346252
 21
159.639145
  0
LINE
  8
LC-003-002-----0
 62
     1
  6
CONTINUOUS
 10
146.046249
 20
59.130516
 11
208.046249
 21
59.130516
  0
LINE
  8
LC-003-002-----0
 62
     1
  6
CONTINUOUS
 10
155.046249
 20
59.130516
 11
155.046249
 21
44.253990
  0
LINE
  8
LC-004-006-----0
 62
     2
  6
DASHDOT
 10
144.847641
 20
39.130516
 11
161.258606
 21
39.130516
  0
LINE
  8
LC-004-006-----0
 62
     2
  6
DASHDOT
 10
153.046249
 20
47.061195
 11
153.046249
 21
30.564020
  0
CIRCLE
  8
LC-003-002-----0
 62
     1
  6
CONTINUOUS
 10
153.046249
 20
39.130516
 40
5.500000
  0
ARC
  8
LC-008-003-----0
 62
     2
  6
CONTINUOUS
 10
153.046249
 20
39.130516
 40
4.000000
 50
81.546072
 51
7.932433
  0
CIRCLE
  8
LC-003-002-----0
 62
     1
  6
CONTINUOUS
 10
153.046249
 20
39.130516
 40
3.500000
  0
LINE
  8
LC-004-006-----0
 62
     2
  6
DASHDOT
 10
177.046249
 20
81.646576
 11
177.046249
 21
-9.333307
  0
LINE
  8
LC-003-002-----0
 62
     1
  6
CONTINUOUS
 10
155.046249
 20
34.007038
 11
155.046249
 21
19.130518
  0
LINE
  8
LC-004-006-----0
 62
     2
  6
DASHDOT
 10
209.244858
 20
39.130516
 11
192.833908
 21
39.130516
  0
LINE
  8
LC-004-006-----0
 62
     2
  6
DASHDOT
 10
201.046249
 20
47.061195
 11
201.046249
 21
30.564020
  0
ARC
  8
LC-008-003-----0
 62
     2
  6
CONTINUOUS
 10
201.046249
 20
39.130516
 40
4.000000
 50
172.067574
 51
98.453926
  0
CIRCLE
  8
LC-003-002-----0
 62
     1
  6
CONTINUOUS
 10
201.046249
 20
39.130516
 40
3.500000
  0
LINE
  8
LC-003-002-----0
 62
     1
  6
CONTINUOUS
 10
199.046249
 20
59.130516
 11
199.046249
 21
44.253990
  0
LINE
  8
LC-003-002-----0
 62
     1
  6
CONTINUOUS
 10
199.046249
 20
34.007038
 11
199.046249
 21
19.130518
  0
LINE
  8
LC-006-012-----0
 62
     2
  6
DASHED
 10
159.574844
 20
59.130516
 11
159.574844
 21
19.130516
  0
LINE
  8
LC-006-012-----0
 62
     2
  6
DASHED
 10
194.517654
 20
59.130516
 11
194.517654
 21
19.130516
  0
LINE
  8
LC-003-002-----0
 62
     1
  6
CONTINUOUS
 10
164.586319
 20
75.921806
 11
164.586319
 21
59.130516
  0
LINE
  8
LC-003-002-----0
 62
     1
  6
CONTINUOUS
 10
189.546249
 20
75.643616
 11
189.546249
 21
59.130516
  0
LINE
  8
LC-008-003-----0
 62
     2
  6
CONTINUOUS
 10
164.586319
 20
75.921806
 11
170.487534
 21
74.670479
  0
LINE
  8
LC-008-003-----0
 62
     2
  6
CONTINUOUS
 10
170.487534
 20
74.670479
 11
183.210190
 21
76.705177
  0
LINE
  8
LC-008-003-----0
 62
     2
  6
CONTINUOUS
 10
183.210190
 20
76.705177
 11
189.546249
 21
75.643616
  0
LINE
  8
LC-008-003-----0
 62
     2
  6
CONTINUOUS
 10
164.586319
 20
-2.424404
 11
171.258591
 21
-4.101237
  0
LINE
  8
LC-008-003-----0
 62
     2
  6
CONTINUOUS
 10
171.258591
 20
-4.101237
 11
183.210190
 21
-2.066543
  0
LINE
  8
LC-008-003-----0
 62
     2
  6
CONTINUOUS
 10
183.210190
 20
-2.066543
 11
189.546249
 21
-2.407759
  0
LINE
  8
LC-006-012-----0
 62
     2
  6
DASHED
 10
164.586319
 20
59.130516
 11
164.586319
 21
19.130516
  0
LINE
  8
LC-006-012-----0
 62
     2
  6
DASHED
 10
189.546249
 20
59.130516
 11
189.546249
 21
19.130516
  0
LINE
  8
LC-003-002-----0
 62
     1
  6
CONTINUOUS
 10
164.586319
 20
19.130516
 11
164.586319
 21
-2.424404
  0
LINE
  8
LC-003-002-----0
 62
     1
  6
CONTINUOUS
 10
189.546249
 20
19.130516
 11
189.546249
 21
-2.407759
  0
ENDSEC
  0
EOF
