  0
SECTION
  2
HEADER
  9
$LIMMIN
 10
400.133392
 20
242.141647
  9
$LIMMAX
 10
613.343689
 20
459.457214
  9
$EXTMIN
 10
400.133392
 20
242.141647
  9
$EXTMAX
 10
613.343689
 20
459.457214
  0
ENDSEC
  0
SECTION
  2
TABLES
  0
TABLE
  2
LTYPE
 70
     3
  0
LTYPE
  2
CONTINUOUS
 70
    64
  3
Ausgezogene Linie
 72
    65
 73
     0
 40
0.0
  0
LTYPE
  2
DASHED
 70
    64
  3
__ __ __ __ __ __ __ __ __ __ __ __ __ __ __
 72
    65
 73
     2
 40
0.75
 49
0.5
 49
-0.25
  0
LTYPE
  2
DASHDOT
 70
    64
  3
__ . __ . __ . __ . __ . __ . __ . __ . __ . __
 72
    65
 73
     4
 40
1.0
 49
0.5
 49
-0.25
 49
0.0
 49
-0.25
  0
ENDTAB
  0
TABLE
  2
LAYER
 70
     5
  0
LAYER
  2
LC-INFO-1-1-MM-A1-0
 70
    64
 62
     7
  6
CONTINUOUS
  0
LAYER
  2
LC-003-002-----0
 70
    64
 62
     7
  6
CONTINUOUS
  0
LAYER
  2
LC-004-006-----0
 70
    64
 62
     7
  6
CONTINUOUS
  0
LAYER
  2
LC-006-012-----0
 70
    64
 62
     7
  6
CONTINUOUS
  0
LAYER
  2
LC-008-003-----0
 70
    64
 62
     7
  6
CONTINUOUS
  0
ENDTAB
  0
TABLE
  2
STYLE
 70
     1
  0
STYLE
  2
TXT8
 70
    64
 40
0.0
 41
1.0
 50
0.0
 71
     0
 42
3.500000
  3
TXT8
  4

  0
ENDTAB
  0
ENDSEC
  0
SECTION
  2
BLOCKS
  0
ENDSEC
  0
SECTION
  2
ENTITIES
  0
ARC
  8
LC-003-002-----0
 62
     1
  6
CONTINUOUS
 10
568.112976
 20
457.015259
 40
12.256551
 50
179.701375
 51
199.970812
  0
ARC
  8
LC-003-002-----0
 62
     1
  6
CONTINUOUS
 10
563.964478
 20
455.391693
 40
7.803745
 50
199.170191
 51
226.640297
  0
ARC
  8
LC-003-002-----0
 62
     1
  6
CONTINUOUS
 10
561.455322
 20
452.707336
 40
4.129403
 50
226.380709
 51
268.630073
  0
ARC
  8
LC-003-002-----0
 62
     1
  6
CONTINUOUS
 10
561.257874
 20
452.707336
 40
4.129403
 50
271.369929
 51
313.619293
  0
ARC
  8
LC-003-002-----0
 62
     1
  6
CONTINUOUS
 10
558.748718
 20
455.391693
 40
7.803745
 50
313.359708
 51
340.829812
  0
ARC
  8
LC-003-002-----0
 62
     1
  6
CONTINUOUS
 10
554.600220
 20
457.015259
 40
12.256551
 50
340.029188
 51
0.298625
  0
CIRCLE
  8
LC-003-002-----0
 62
     1
  6
CONTINUOUS
 10
435.861816
 20
427.079132
 40
18.000000
  0
CIRCLE
  8
LC-003-002-----0
 62
     1
  6
CONTINUOUS
 10
409.361816
 20
295.575470
 40
5.500000
  0
LINE
  8
LC-003-002-----0
 62
     1
  6
CONTINUOUS
 10
402.361816
 20
397.079132
 11
402.361816
 21
447.079132
  0
LINE
  8
LC-003-002-----0
 62
     1
  6
CONTINUOUS
 10
402.361816
 20
397.079132
 11
469.361816
 21
397.079132
  0
LINE
  8
LC-003-002-----0
 62
     1
  6
CONTINUOUS
 10
459.361816
 20
457.079132
 11
412.361816
 21
457.079132
  0
LINE
  8
LC-003-002-----0
 62
     1
  6
CONTINUOUS
 10
469.361816
 20
397.079132
 11
469.361816
 21
447.079132
  0
LINE
  8
LC-003-002-----0
 62
     1
  6
CONTINUOUS
 10
402.361816
 20
447.079132
 11
412.361816
 21
457.079132
  0
LINE
  8
LC-003-002-----0
 62
     1
  6
CONTINUOUS
 10
469.361816
 20
447.079132
 11
459.361816
 21
457.079132
  0
LINE
  8
LC-004-006-----0
 62
     2
  6
DASHDOT
 10
435.861816
 20
404.883698
 11
435.861816
 21
449.673584
  0
LINE
  8
LC-004-006-----0
 62
     2
  6
DASHDOT
 10
412.639618
 20
427.079132
 11
458.101013
 21
427.079132
  0
CIRCLE
  8
LC-003-002-----0
 62
     1
  6
CONTINUOUS
 10
435.861816
 20
427.079132
 40
15.000000
  0
CIRCLE
  8
LC-003-002-----0
 62
     1
  6
CONTINUOUS
 10
435.861816
 20
427.079132
 40
20.000000
  0
LINE
  8
LC-004-006-----0
 62
     2
  6
DASHDOT
 10
462.361816
 20
394.095886
 11
462.361816
 21
458.139954
  0
LINE
  8
LC-006-012-----0
 62
     2
  6
DASHED
 10
466.361816
 20
397.079132
 11
466.361816
 21
415.079132
  0
LINE
  8
LC-006-012-----0
 62
     2
  6
DASHED
 10
458.361816
 20
397.079132
 11
458.361816
 21
415.079132
  0
LINE
  8
LC-006-012-----0
 62
     2
  6
DASHED
 10
458.361816
 20
415.079132
 11
466.361816
 21
415.079132
  0
LINE
  8
LC-006-012-----0
 62
     2
  6
DASHED
 10
465.661804
 20
397.079132
 11
465.661804
 21
426.079132
  0
LINE
  8
LC-006-012-----0
 62
     2
  6
DASHED
 10
459.061798
 20
397.079132
 11
459.061798
 21
426.079132
  0
LINE
  8
LC-006-012-----0
 62
     2
  6
DASHED
 10
467.861816
 20
426.079132
 11
456.861816
 21
426.079132
  0
LINE
  8
LC-006-012-----0
 62
     2
  6
DASHED
 10
467.861816
 20
426.079132
 11
467.861816
 21
448.579132
  0
LINE
  8
LC-006-012-----0
 62
     2
  6
DASHED
 10
456.861816
 20
426.079132
 11
456.861816
 21
457.079132
  0
LINE
  8
LC-004-006-----0
 62
     2
  6
DASHDOT
 10
409.361816
 20
394.095886
 11
409.361816
 21
458.139954
  0
LINE
  8
LC-006-012-----0
 62
     2
  6
DASHED
 10
405.361816
 20
397.079132
 11
405.361816
 21
415.079132
  0
LINE
  8
LC-006-012-----0
 62
     2
  6
DASHED
 10
413.361816
 20
397.079132
 11
413.361816
 21
415.079132
  0
LINE
  8
LC-006-012-----0
 62
     2
  6
DASHED
 10
413.361816
 20
415.079132
 11
405.361816
 21
415.079132
  0
LINE
  8
LC-006-012-----0
 62
     2
  6
DASHED
 10
406.061798
 20
397.079132
 11
406.061798
 21
426.079132
  0
LINE
  8
LC-006-012-----0
 62
     2
  6
DASHED
 10
412.661804
 20
397.079132
 11
412.661804
 21
426.079132
  0
LINE
  8
LC-006-012-----0
 62
     2
  6
DASHED
 10
414.861816
 20
426.079132
 11
414.861816
 21
457.079132
  0
LINE
  8
LC-006-012-----0
 62
     2
  6
DASHED
 10
403.861816
 20
426.079132
 11
414.861816
 21
426.079132
  0
LINE
  8
LC-006-012-----0
 62
     2
  6
DASHED
 10
403.861816
 20
426.079132
 11
403.861816
 21
448.579132
  0
LINE
  8
LC-003-002-----0
 62
     1
  6
CONTINUOUS
 10
536.356567
 20
397.079132
 11
586.356567
 21
397.079132
  0
LINE
  8
LC-003-002-----0
 62
     1
  6
CONTINUOUS
 10
536.356567
 20
397.079132
 11
536.356567
 21
457.079132
  0
LINE
  8
LC-003-002-----0
 62
     1
  6
CONTINUOUS
 10
536.356567
 20
457.079132
 11
586.356567
 21
457.079132
  0
LINE
  8
LC-003-002-----0
 62
     1
  6
CONTINUOUS
 10
586.356567
 20
397.079132
 11
586.356567
 21
457.079132
  0
LINE
  8
LC-003-002-----0
 62
     1
  6
CONTINUOUS
 10
536.356567
 20
447.079132
 11
586.356567
 21
447.079132
  0
LINE
  8
LC-004-006-----0
 62
     2
  6
DASHDOT
 10
561.356567
 20
394.095886
 11
561.356567
 21
459.457214
  0
LINE
  8
LC-006-012-----0
 62
     2
  6
DASHED
 10
557.356567
 20
415.079132
 11
565.356567
 21
415.079132
  0
LINE
  8
LC-006-012-----0
 62
     2
  6
DASHED
 10
564.656555
 20
397.079132
 11
564.656555
 21
426.079132
  0
LINE
  8
LC-006-012-----0
 62
     2
  6
DASHED
 10
558.056580
 20
397.079132
 11
558.056580
 21
426.079132
  0
LINE
  8
LC-004-006-----0
 62
     2
  6
DASHDOT
 10
512.819153
 20
427.079132
 11
613.343689
 21
427.079132
  0
LINE
  8
LC-006-012-----0
 62
     2
  6
DASHED
 10
565.356567
 20
397.079132
 11
565.356567
 21
415.079132
  0
LINE
  8
LC-003-002-----0
 62
     1
  6
CONTINUOUS
 10
517.314209
 20
442.079132
 11
536.356567
 21
442.079132
  0
LINE
  8
LC-006-012-----0
 62
     2
  6
DASHED
 10
557.356567
 20
397.079132
 11
557.356567
 21
415.079132
  0
LINE
  8
LC-006-012-----0
 62
     2
  6
DASHED
 10
555.856567
 20
426.079132
 11
555.856567
 21
457.079132
  0
LINE
  8
LC-006-012-----0
 62
     2
  6
DASHED
 10
566.856567
 20
426.079132
 11
566.856567
 21
457.079132
  0
LINE
  8
LC-006-012-----0
 62
     2
  6
DASHED
 10
566.856567
 20
426.079132
 11
555.856567
 21
426.079132
  0
LINE
  8
LC-006-012-----0
 62
     2
  6
DASHED
 10
536.356567
 20
407.079132
 11
586.356567
 21
407.079132
  0
LINE
  8
LC-003-002-----0
 62
     1
  6
CONTINUOUS
 10
517.181396
 20
412.079132
 11
536.356567
 21
412.079132
  0
LINE
  8
LC-008-003-----0
 62
     2
  6
CONTINUOUS
 10
517.181396
 20
412.079132
 11
517.722778
 21
419.834259
  0
LINE
  8
LC-008-003-----0
 62
     2
  6
CONTINUOUS
 10
517.722778
 20
419.834259
 11
516.742065
 21
433.883026
  0
LINE
  8
LC-008-003-----0
 62
     2
  6
CONTINUOUS
 10
516.742065
 20
433.883026
 11
517.314209
 21
442.079132
  0
LINE
  8
LC-008-003-----0
 62
     2
  6
CONTINUOUS
 10
609.513733
 20
412.079132
 11
609.911133
 21
418.170563
  0
LINE
  8
LC-008-003-----0
 62
     2
  6
CONTINUOUS
 10
609.911133
 20
418.170563
 11
608.685181
 21
431.664795
  0
LINE
  8
LC-008-003-----0
 62
     2
  6
CONTINUOUS
 10
608.685181
 20
431.664795
 11
609.412231
 21
442.079132
  0
LINE
  8
LC-006-012-----0
 62
     2
  6
DASHED
 10
536.356567
 20
442.079132
 11
586.356567
 21
442.079132
  0
LINE
  8
LC-006-012-----0
 62
     2
  6
DASHED
 10
536.356567
 20
412.079132
 11
586.356567
 21
412.079132
  0
LINE
  8
LC-003-002-----0
 62
     1
  6
CONTINUOUS
 10
586.356567
 20
412.079132
 11
609.513733
 21
412.079132
  0
LINE
  8
LC-003-002-----0
 62
     1
  6
CONTINUOUS
 10
586.356567
 20
442.079132
 11
609.412231
 21
442.079132
  0
LINE
  8
LC-003-002-----0
 62
     1
  6
CONTINUOUS
 10
402.361816
 20
320.575470
 11
402.361816
 21
270.575470
  0
LINE
  8
LC-003-002-----0
 62
     1
  6
CONTINUOUS
 10
402.361816
 20
270.575470
 11
469.361816
 21
270.575470
  0
LINE
  8
LC-003-002-----0
 62
     1
  6
CONTINUOUS
 10
469.361816
 20
320.575470
 11
469.361816
 21
270.575470
  0
LINE
  8
LC-003-002-----0
 62
     1
  6
CONTINUOUS
 10
402.361816
 20
320.575470
 11
469.361816
 21
320.575470
  0
LINE
  8
LC-004-006-----0
 62
     2
  6
DASHDOT
 10
409.361816
 20
304.476837
 11
409.361816
 21
286.428070
  0
LINE
  8
LC-004-006-----0
 62
     2
  6
DASHDOT
 10
400.133392
 20
295.575470
 11
418.502625
 21
295.575470
  0
ARC
  8
LC-008-003-----0
 62
     2
  6
CONTINUOUS
 10
409.361816
 20
295.575470
 40
4.000000
 50
78.767640
 51
9.931386
  0
CIRCLE
  8
LC-003-002-----0
 62
     1
  6
CONTINUOUS
 10
409.361816
 20
295.575470
 40
3.500000
  0
CIRCLE
  8
LC-003-002-----0
 62
     1
  6
CONTINUOUS
 10
462.361816
 20
295.575470
 40
5.500000
  0
LINE
  8
LC-003-002-----0
 62
     1
  6
CONTINUOUS
 10
412.361816
 20
320.575470
 11
412.361816
 21
300.185242
  0
LINE
  8
LC-003-002-----0
 62
     1
  6
CONTINUOUS
 10
412.361816
 20
290.965698
 11
412.361816
 21
270.575470
  0
LINE
  8
LC-004-006-----0
 62
     2
  6
DASHDOT
 10
462.361816
 20
304.476837
 11
462.361816
 21
286.428070
  0
LINE
  8
LC-004-006-----0
 62
     2
  6
DASHDOT
 10
471.590210
 20
295.575470
 11
453.220978
 21
295.575470
  0
ARC
  8
LC-008-003-----0
 62
     2
  6
CONTINUOUS
 10
462.361816
 20
295.575470
 40
4.000000
 50
170.068609
 51
101.232365
  0
CIRCLE
  8
LC-003-002-----0
 62
     1
  6
CONTINUOUS
 10
462.361816
 20
295.575470
 40
3.500000
  0
LINE
  8
LC-003-002-----0
 62
     1
  6
CONTINUOUS
 10
459.361816
 20
320.575470
 11
459.361816
 21
300.185242
  0
LINE
  8
LC-003-002-----0
 62
     1
  6
CONTINUOUS
 10
459.361816
 20
290.965698
 11
459.361816
 21
270.575470
  0
LINE
  8
LC-006-012-----0
 62
     2
  6
DASHED
 10
455.861816
 20
320.575470
 11
455.861816
 21
270.575470
  0
LINE
  8
LC-006-012-----0
 62
     2
  6
DASHED
 10
415.861816
 20
320.575470
 11
415.861816
 21
270.575470
  0
LINE
  8
LC-004-006-----0
 62
     2
  6
DASHDOT
 10
435.861816
 20
343.259033
 11
435.861816
 21
242.141647
  0
LINE
  8
LC-003-002-----0
 62
     1
  6
CONTINUOUS
 10
450.861816
 20
339.462128
 11
450.861816
 21
320.575470
  0
LINE
  8
LC-008-003-----0
 62
     2
  6
CONTINUOUS
 10
420.861816
 20
338.987762
 11
425.719086
 21
339.469635
  0
LINE
  8
LC-008-003-----0
 62
     2
  6
CONTINUOUS
 10
425.719086
 20
339.469635
 11
440.797516
 21
338.472412
  0
LINE
  8
LC-008-003-----0
 62
     2
  6
CONTINUOUS
 10
440.797516
 20
338.472412
 11
450.861816
 21
339.462128
  0
LINE
  8
LC-008-003-----0
 62
     2
  6
CONTINUOUS
 10
420.861816
 20
251.572418
 11
427.041748
 21
250.329941
  0
LINE
  8
LC-008-003-----0
 62
     2
  6
CONTINUOUS
 10
427.041748
 20
250.329941
 11
445.030060
 21
252.723251
  0
LINE
  8
LC-008-003-----0
 62
     2
  6
CONTINUOUS
 10
445.030060
 20
252.723251
 11
450.861816
 21
252.161957
  0
LINE
  8
LC-003-002-----0
 62
     1
  6
CONTINUOUS
 10
420.861816
 20
338.987762
 11
420.861816
 21
320.575470
  0
LINE
  8
LC-006-012-----0
 62
     2
  6
DASHED
 10
420.861816
 20
320.575470
 11
420.861816
 21
270.575470
  0
LINE
  8
LC-006-012-----0
 62
     2
  6
DASHED
 10
450.861816
 20
320.575470
 11
450.861816
 21
270.575470
  0
LINE
  8
LC-003-002-----0
 62
     1
  6
CONTINUOUS
 10
450.861816
 20
270.575470
 11
450.861816
 21
252.161972
  0
LINE
  8
LC-003-002-----0
 62
     1
  6
CONTINUOUS
 10
420.861816
 20
270.575470
 11
420.861816
 21
251.572433
  0
ENDSEC
  0
EOF
