  0
SECTION
  2
HEADER
  9
$LIMMIN
 10
400.423645
 20
-45.346523
  9
$LIMMAX
 10
630.212769
 20
201.289246
  9
$EXTMIN
 10
400.423645
 20
-45.346523
  9
$EXTMAX
 10
630.212769
 20
201.289246
  0
ENDSEC
  0
SECTION
  2
TABLES
  0
TABLE
  2
LTYPE
 70
     3
  0
LTYPE
  2
CONTINUOUS
 70
    64
  3
Ausgezogene Linie
 72
    65
 73
     0
 40
0.0
  0
LTYPE
  2
DASHED
 70
    64
  3
__ __ __ __ __ __ __ __ __ __ __ __ __ __ __
 72
    65
 73
     2
 40
0.75
 49
0.5
 49
-0.25
  0
LTYPE
  2
DASHDOT
 70
    64
  3
__ . __ . __ . __ . __ . __ . __ . __ . __ . __
 72
    65
 73
     4
 40
1.0
 49
0.5
 49
-0.25
 49
0.0
 49
-0.25
  0
ENDTAB
  0
TABLE
  2
LAYER
 70
     5
  0
LAYER
  2
LC-INFO-1-1-MM-A1-0
 70
    64
 62
     7
  6
CONTINUOUS
  0
LAYER
  2
LC-003-002-----0
 70
    64
 62
     7
  6
CONTINUOUS
  0
LAYER
  2
LC-004-006-----0
 70
    64
 62
     7
  6
CONTINUOUS
  0
LAYER
  2
LC-006-012-----0
 70
    64
 62
     7
  6
CONTINUOUS
  0
LAYER
  2
LC-008-003-----0
 70
    64
 62
     7
  6
CONTINUOUS
  0
ENDTAB
  0
TABLE
  2
STYLE
 70
     1
  0
STYLE
  2
TXT8
 70
    64
 40
0.0
 41
1.0
 50
0.0
 71
     0
 42
3.500000
  3
TXT8
  4

  0
ENDTAB
  0
ENDSEC
  0
SECTION
  2
BLOCKS
  0
ENDSEC
  0
SECTION
  2
ENTITIES
  0
ARC
  8
LC-003-002-----0
 62
     1
  6
CONTINUOUS
 10
582.342285
 20
196.572662
 40
13.870464
 50
179.725349
 51
201.944519
  0
ARC
  8
LC-003-002-----0
 62
     1
  6
CONTINUOUS
 10
578.430847
 20
194.882828
 40
9.611481
 50
201.314707
 51
229.760642
  0
ARC
  8
LC-003-002-----0
 62
     1
  6
CONTINUOUS
 10
576.065063
 20
192.088928
 40
5.950511
 50
229.771256
 51
269.103706
  0
ARC
  8
LC-003-002-----0
 62
     1
  6
CONTINUOUS
 10
575.878906
 20
192.088928
 40
5.950511
 50
270.896296
 51
310.228739
  0
ARC
  8
LC-003-002-----0
 62
     1
  6
CONTINUOUS
 10
573.513123
 20
194.882828
 40
9.611481
 50
310.239357
 51
338.685288
  0
ARC
  8
LC-003-002-----0
 62
     1
  6
CONTINUOUS
 10
569.601685
 20
196.572662
 40
13.870464
 50
338.055476
 51
0.274645
  0
CIRCLE
  8
LC-003-002-----0
 62
     1
  6
CONTINUOUS
 10
445.861816
 20
159.639145
 40
24.000000
  0
LINE
  8
LC-003-002-----0
 62
     1
  6
CONTINUOUS
 10
402.361816
 20
120.639145
 11
402.361816
 21
184.639145
  0
LINE
  8
LC-003-002-----0
 62
     1
  6
CONTINUOUS
 10
402.361816
 20
184.639145
 11
414.361816
 21
196.639145
  0
LINE
  8
LC-003-002-----0
 62
     1
  6
CONTINUOUS
 10
414.361816
 20
196.639145
 11
477.361816
 21
196.639145
  0
LINE
  8
LC-003-002-----0
 62
     1
  6
CONTINUOUS
 10
489.361816
 20
184.639145
 11
489.361816
 21
120.639145
  0
LINE
  8
LC-003-002-----0
 62
     1
  6
CONTINUOUS
 10
402.361816
 20
120.639145
 11
489.361816
 21
120.639145
  0
LINE
  8
LC-003-002-----0
 62
     1
  6
CONTINUOUS
 10
477.361816
 20
196.639145
 11
489.361816
 21
184.639145
  0
LINE
  8
LC-004-006-----0
 62
     2
  6
DASHDOT
 10
445.861816
 20
189.121902
 11
445.861816
 21
129.298141
  0
LINE
  8
LC-004-006-----0
 62
     2
  6
DASHDOT
 10
416.314789
 20
159.639145
 11
475.426483
 21
159.639145
  0
CIRCLE
  8
LC-003-002-----0
 62
     1
  6
CONTINUOUS
 10
445.861816
 20
159.639145
 40
20.000000
  0
CIRCLE
  8
LC-003-002-----0
 62
     1
  6
CONTINUOUS
 10
445.861816
 20
159.639145
 40
26.000000
  0
LINE
  8
LC-004-006-----0
 62
     2
  6
DASHDOT
 10
480.361816
 20
201.289246
 11
480.361816
 21
116.529854
  0
LINE
  8
LC-006-012-----0
 62
     2
  6
DASHED
 10
485.361816
 20
142.639145
 11
485.361816
 21
120.639145
  0
LINE
  8
LC-006-012-----0
 62
     2
  6
DASHED
 10
475.361816
 20
142.639145
 11
475.361816
 21
120.639145
  0
LINE
  8
LC-006-012-----0
 62
     2
  6
DASHED
 10
484.361816
 20
142.639145
 11
484.361816
 21
120.639145
  0
LINE
  8
LC-006-012-----0
 62
     2
  6
DASHED
 10
476.361816
 20
142.639145
 11
476.361816
 21
120.639145
  0
LINE
  8
LC-006-012-----0
 62
     2
  6
DASHED
 10
475.361816
 20
142.639145
 11
485.361816
 21
142.639145
  0
LINE
  8
LC-006-012-----0
 62
     2
  6
DASHED
 10
484.561798
 20
158.639145
 11
484.561798
 21
142.639145
  0
LINE
  8
LC-006-012-----0
 62
     2
  6
DASHED
 10
476.161804
 20
158.639145
 11
476.161804
 21
142.639145
  0
LINE
  8
LC-006-012-----0
 62
     2
  6
DASHED
 10
472.861816
 20
158.639145
 11
487.861816
 21
158.639145
  0
LINE
  8
LC-006-012-----0
 62
     2
  6
DASHED
 10
487.861816
 20
186.139145
 11
487.861816
 21
158.639145
  0
LINE
  8
LC-006-012-----0
 62
     2
  6
DASHED
 10
472.861816
 20
196.639145
 11
472.861816
 21
158.639145
  0
LINE
  8
LC-004-006-----0
 62
     2
  6
DASHDOT
 10
411.361816
 20
201.289246
 11
411.361816
 21
116.529854
  0
LINE
  8
LC-006-012-----0
 62
     2
  6
DASHED
 10
406.361816
 20
142.639145
 11
406.361816
 21
120.639145
  0
LINE
  8
LC-006-012-----0
 62
     2
  6
DASHED
 10
416.361816
 20
142.639145
 11
416.361816
 21
120.639145
  0
LINE
  8
LC-006-012-----0
 62
     2
  6
DASHED
 10
407.361816
 20
142.639145
 11
407.361816
 21
120.639145
  0
LINE
  8
LC-006-012-----0
 62
     2
  6
DASHED
 10
415.361816
 20
142.639145
 11
415.361816
 21
120.639145
  0
LINE
  8
LC-006-012-----0
 62
     2
  6
DASHED
 10
416.361816
 20
142.639145
 11
406.361816
 21
142.639145
  0
LINE
  8
LC-006-012-----0
 62
     2
  6
DASHED
 10
407.161804
 20
158.639145
 11
407.161804
 21
142.639145
  0
LINE
  8
LC-006-012-----0
 62
     2
  6
DASHED
 10
415.561798
 20
158.639145
 11
415.561798
 21
142.639145
  0
LINE
  8
LC-006-012-----0
 62
     2
  6
DASHED
 10
418.861816
 20
158.639145
 11
403.861816
 21
158.639145
  0
LINE
  8
LC-006-012-----0
 62
     2
  6
DASHED
 10
418.861816
 20
196.639145
 11
418.861816
 21
158.639145
  0
LINE
  8
LC-006-012-----0
 62
     2
  6
DASHED
 10
403.861816
 20
186.139145
 11
403.861816
 21
158.639145
  0
LINE
  8
LC-003-002-----0
 62
     1
  6
CONTINUOUS
 10
545.971985
 20
120.639145
 11
605.971985
 21
120.639145
  0
LINE
  8
LC-003-002-----0
 62
     1
  6
CONTINUOUS
 10
605.971985
 20
120.639145
 11
605.971985
 21
196.639145
  0
LINE
  8
LC-003-002-----0
 62
     1
  6
CONTINUOUS
 10
545.971985
 20
196.639145
 11
605.971985
 21
196.639145
  0
LINE
  8
LC-003-002-----0
 62
     1
  6
CONTINUOUS
 10
545.971985
 20
120.639145
 11
545.971985
 21
196.639145
  0
LINE
  8
LC-004-006-----0
 62
     2
  6
DASHDOT
 10
575.971985
 20
201.289246
 11
575.971985
 21
116.529854
  0
LINE
  8
LC-006-012-----0
 62
     2
  6
DASHED
 10
580.971985
 20
142.639145
 11
580.971985
 21
120.639145
  0
LINE
  8
LC-006-012-----0
 62
     2
  6
DASHED
 10
570.971985
 20
142.639145
 11
570.971985
 21
120.639145
  0
LINE
  8
LC-006-012-----0
 62
     2
  6
DASHED
 10
579.971985
 20
142.639145
 11
579.971985
 21
120.639145
  0
LINE
  8
LC-006-012-----0
 62
     2
  6
DASHED
 10
571.971985
 20
142.639145
 11
571.971985
 21
120.639145
  0
LINE
  8
LC-006-012-----0
 62
     2
  6
DASHED
 10
570.971985
 20
142.639145
 11
580.971985
 21
142.639145
  0
LINE
  8
LC-006-012-----0
 62
     2
  6
DASHED
 10
580.171997
 20
158.639145
 11
580.171997
 21
142.639145
  0
LINE
  8
LC-006-012-----0
 62
     2
  6
DASHED
 10
571.771973
 20
158.639145
 11
571.771973
 21
142.639145
  0
LINE
  8
LC-006-012-----0
 62
     2
  6
DASHED
 10
568.471985
 20
196.639145
 11
568.471985
 21
158.639145
  0
LINE
  8
LC-006-012-----0
 62
     2
  6
DASHED
 10
568.471985
 20
158.639145
 11
583.471985
 21
158.639145
  0
LINE
  8
LC-006-012-----0
 62
     2
  6
DASHED
 10
583.471985
 20
196.639145
 11
583.471985
 21
158.639145
  0
LINE
  8
LC-003-002-----0
 62
     1
  6
CONTINUOUS
 10
545.971985
 20
184.639145
 11
605.971985
 21
184.639145
  0
LINE
  8
LC-006-012-----0
 62
     2
  6
DASHED
 10
545.971985
 20
185.639145
 11
605.971985
 21
185.639145
  0
LINE
  8
LC-006-012-----0
 62
     2
  6
DASHED
 10
545.971985
 20
133.639145
 11
605.971985
 21
133.639145
  0
LINE
  8
LC-004-006-----0
 62
     2
  6
DASHDOT
 10
517.811462
 20
159.639145
 11
630.212769
 21
159.639145
  0
LINE
  8
LC-003-002-----0
 62
     1
  6
CONTINUOUS
 10
521.657837
 20
179.639145
 11
545.971985
 21
179.639145
  0
LINE
  8
LC-003-002-----0
 62
     1
  6
CONTINUOUS
 10
523.423584
 20
139.639145
 11
545.971985
 21
139.639145
  0
LINE
  8
LC-008-003-----0
 62
     2
  6
CONTINUOUS
 10
523.423584
 20
139.639145
 11
523.204895
 21
148.708542
  0
LINE
  8
LC-008-003-----0
 62
     2
  6
CONTINUOUS
 10
523.204895
 20
148.708542
 11
523.844666
 21
165.349960
  0
LINE
  8
LC-008-003-----0
 62
     2
  6
CONTINUOUS
 10
523.844666
 20
165.349960
 11
521.657837
 21
179.639145
  0
LINE
  8
LC-008-003-----0
 62
     2
  6
CONTINUOUS
 10
625.653625
 20
139.639145
 11
626.454651
 21
147.037643
  0
LINE
  8
LC-008-003-----0
 62
     2
  6
CONTINUOUS
 10
626.454651
 20
147.037643
 11
624.746460
 21
167.515259
  0
LINE
  8
LC-008-003-----0
 62
     2
  6
CONTINUOUS
 10
624.746460
 20
167.515259
 11
625.278015
 21
179.639145
  0
LINE
  8
LC-006-012-----0
 62
     2
  6
DASHED
 10
545.971985
 20
179.639145
 11
605.971985
 21
179.639145
  0
LINE
  8
LC-003-002-----0
 62
     1
  6
CONTINUOUS
 10
605.971985
 20
179.639145
 11
625.278015
 21
179.639145
  0
LINE
  8
LC-006-012-----0
 62
     2
  6
DASHED
 10
545.971985
 20
139.639145
 11
605.971985
 21
139.639145
  0
LINE
  8
LC-003-002-----0
 62
     1
  6
CONTINUOUS
 10
605.971985
 20
139.639145
 11
625.653625
 21
139.639145
  0
LINE
  8
LC-003-002-----0
 62
     1
  6
CONTINUOUS
 10
402.361816
 20
48.290100
 11
402.361816
 21
-11.709900
  0
LINE
  8
LC-003-002-----0
 62
     1
  6
CONTINUOUS
 10
402.361816
 20
-11.709900
 11
489.361816
 21
-11.709900
  0
LINE
  8
LC-003-002-----0
 62
     1
  6
CONTINUOUS
 10
489.361816
 20
48.290100
 11
489.361816
 21
-11.709900
  0
LINE
  8
LC-003-002-----0
 62
     1
  6
CONTINUOUS
 10
402.361816
 20
48.290100
 11
489.361816
 21
48.290100
  0
LINE
  8
LC-003-002-----0
 62
     1
  6
CONTINUOUS
 10
414.361816
 20
48.290100
 11
414.361816
 21
25.163963
  0
LINE
  8
LC-004-006-----0
 62
     2
  6
DASHDOT
 10
411.361816
 20
28.585323
 11
411.361816
 21
7.350261
  0
LINE
  8
LC-004-006-----0
 62
     2
  6
DASHDOT
 10
400.423645
 20
18.290100
 11
422.468323
 21
18.290100
  0
CIRCLE
  8
LC-003-002-----0
 62
     1
  6
CONTINUOUS
 10
411.361816
 20
18.290100
 40
7.500000
  0
ARC
  8
LC-008-003-----0
 62
     2
  6
CONTINUOUS
 10
411.361816
 20
18.290100
 40
5.000000
 50
85.511612
 51
8.806213
  0
CIRCLE
  8
LC-003-002-----0
 62
     1
  6
CONTINUOUS
 10
411.361816
 20
18.290100
 40
4.000000
  0
LINE
  8
LC-003-002-----0
 62
     1
  6
CONTINUOUS
 10
414.361816
 20
11.416237
 11
414.361816
 21
-11.709900
  0
LINE
  8
LC-003-002-----0
 62
     1
  6
CONTINUOUS
 10
477.361816
 20
48.290100
 11
477.361816
 21
25.163963
  0
LINE
  8
LC-004-006-----0
 62
     2
  6
DASHDOT
 10
480.361816
 20
28.585323
 11
480.361816
 21
7.350261
  0
LINE
  8
LC-004-006-----0
 62
     2
  6
DASHDOT
 10
491.299988
 20
18.290100
 11
469.255280
 21
18.290100
  0
CIRCLE
  8
LC-003-002-----0
 62
     1
  6
CONTINUOUS
 10
480.361816
 20
18.290100
 40
7.500000
  0
ARC
  8
LC-008-003-----0
 62
     2
  6
CONTINUOUS
 10
480.361816
 20
18.290100
 40
5.000000
 50
171.193787
 51
94.488386
  0
CIRCLE
  8
LC-003-002-----0
 62
     1
  6
CONTINUOUS
 10
480.361816
 20
18.290100
 40
4.000000
  0
LINE
  8
LC-003-002-----0
 62
     1
  6
CONTINUOUS
 10
477.361816
 20
11.416237
 11
477.361816
 21
-11.709900
  0
LINE
  8
LC-006-012-----0
 62
     2
  6
DASHED
 10
471.861816
 20
48.290100
 11
471.861816
 21
-11.709900
  0
LINE
  8
LC-006-012-----0
 62
     2
  6
DASHED
 10
419.861816
 20
48.290100
 11
419.861816
 21
-11.709900
  0
LINE
  8
LC-004-006-----0
 62
     2
  6
DASHDOT
 10
445.861816
 20
73.351952
 11
445.861816
 21
-45.346523
  0
LINE
  8
LC-003-002-----0
 62
     1
  6
CONTINUOUS
 10
425.861816
 20
66.658562
 11
425.861816
 21
48.290100
  0
LINE
  8
LC-003-002-----0
 62
     1
  6
CONTINUOUS
 10
465.861816
 20
66.836639
 11
465.861816
 21
48.290096
  0
LINE
  8
LC-008-003-----0
 62
     2
  6
CONTINUOUS
 10
425.861816
 20
66.658562
 11
434.368347
 21
65.589661
  0
LINE
  8
LC-008-003-----0
 62
     2
  6
CONTINUOUS
 10
434.368347
 20
65.589661
 11
454.530670
 21
67.853661
  0
LINE
  8
LC-008-003-----0
 62
     2
  6
CONTINUOUS
 10
454.530670
 20
67.853661
 11
465.861816
 21
66.836639
  0
LINE
  8
LC-008-003-----0
 62
     2
  6
CONTINUOUS
 10
425.861816
 20
-37.840202
 11
436.513275
 21
-40.171661
  0
LINE
  8
LC-008-003-----0
 62
     2
  6
CONTINUOUS
 10
436.513275
 20
-40.171661
 11
453.243713
 21
-37.907658
  0
LINE
  8
LC-008-003-----0
 62
     2
  6
CONTINUOUS
 10
453.243713
 20
-37.907658
 11
465.861816
 21
-39.299847
  0
LINE
  8
LC-006-012-----0
 62
     2
  6
DASHED
 10
425.861816
 20
48.290100
 11
425.861816
 21
-11.709900
  0
LINE
  8
LC-003-002-----0
 62
     1
  6
CONTINUOUS
 10
425.861816
 20
-11.709900
 11
425.861816
 21
-37.840202
  0
LINE
  8
LC-006-012-----0
 62
     2
  6
DASHED
 10
465.861816
 20
48.290100
 11
465.861816
 21
-11.709900
  0
LINE
  8
LC-003-002-----0
 62
     1
  6
CONTINUOUS
 10
465.861816
 20
-11.709900
 11
465.861816
 21
-39.299847
  0
ENDSEC
  0
EOF
