  0
SECTION
  2
HEADER
  9
$LIMMIN
 10
-132.535919
 20
219.864777
  9
$LIMMAX
 10
61.994946
 20
289.864777
  9
$EXTMIN
 10
-132.535919
 20
219.864777
  9
$EXTMAX
 10
61.994946
 20
289.864777
  0
ENDSEC
  0
SECTION
  2
TABLES
  0
TABLE
  2
LTYPE
 70
     3
  0
LTYPE
  2
CONTINUOUS
 70
    64
  3
Ausgezogene Linie
 72
    65
 73
     0
 40
0.0
  0
LTYPE
  2
DASHED
 70
    64
  3
__ __ __ __ __ __ __ __ __ __ __ __ __ __ __
 72
    65
 73
     2
 40
0.75
 49
0.5
 49
-0.25
  0
LTYPE
  2
CENTER
 70
    64
  3
____ _ ____ _ ____ _ ____ _ ____ _ ____ _ ____
 72
    65
 73
     4
 40
2.0
 49
1.25
 49
-0.25
 49
0.25
 49
-0.25
  0
ENDTAB
  0
TABLE
  2
LAYER
 70
     5
  0
LAYER
  2
LC-INFO-1-1-MM-A0-0
 70
    64
 62
     7
  6
CONTINUOUS
  0
LAYER
  2
LC-003-002-----0
 70
    64
 62
     7
  6
CONTINUOUS
  0
LAYER
  2
LC-002-021-SLN-3
 70
    64
 62
     7
  6
CONTINUOUS
  0
LAYER
  2
LC-001-150-----0
 70
    64
 62
     7
  6
CONTINUOUS
  0
LAYER
  2
LC-008-003-----0
 70
    64
 62
     7
  6
CONTINUOUS
  0
ENDTAB
  0
TABLE
  2
STYLE
 70
     1
  0
STYLE
  2
TXT8
 70
    64
 40
0.0
 41
1.0
 50
0.0
 71
     0
 42
3.500000
  3
TXT8
  4

  0
ENDTAB
  0
ENDSEC
  0
SECTION
  2
BLOCKS
  0
ENDSEC
  0
SECTION
  2
ENTITIES
  0
LINE
  8
LC-008-003-----0
 62
     2
  6
CONTINUOUS
 10
38.790852
 20
270.014771
 11
39.407425
 21
270.631348
  0
LINE
  8
LC-008-003-----0
 62
     2
  6
CONTINUOUS
 10
38.083748
 20
270.014771
 11
39.407425
 21
271.338440
  0
LINE
  8
LC-008-003-----0
 62
     2
  6
CONTINUOUS
 10
37.907425
 20
270.545563
 11
39.407425
 21
272.045563
  0
LINE
  8
LC-008-003-----0
 62
     2
  6
CONTINUOUS
 10
37.907425
 20
271.252655
 11
39.407425
 21
272.752655
  0
LINE
  8
LC-008-003-----0
 62
     2
  6
CONTINUOUS
 10
37.907425
 20
271.959778
 11
39.407425
 21
273.459778
  0
LINE
  8
LC-008-003-----0
 62
     2
  6
CONTINUOUS
 10
37.907425
 20
272.666870
 11
38.855320
 21
273.614777
  0
LINE
  8
LC-008-003-----0
 62
     2
  6
CONTINUOUS
 10
37.907425
 20
273.373993
 11
38.148212
 21
273.614777
  0
LINE
  8
LC-008-003-----0
 62
     2
  6
CONTINUOUS
 10
9.092368
 20
270.014771
 11
9.407426
 21
270.329834
  0
LINE
  8
LC-008-003-----0
 62
     2
  6
CONTINUOUS
 10
8.385261
 20
270.014771
 11
9.407426
 21
271.036926
  0
LINE
  8
LC-008-003-----0
 62
     2
  6
CONTINUOUS
 10
7.907426
 20
270.244049
 11
9.407426
 21
271.744049
  0
LINE
  8
LC-008-003-----0
 62
     2
  6
CONTINUOUS
 10
7.907426
 20
270.951141
 11
9.407426
 21
272.451141
  0
LINE
  8
LC-008-003-----0
 62
     2
  6
CONTINUOUS
 10
7.907426
 20
271.658264
 11
9.407426
 21
273.158264
  0
LINE
  8
LC-008-003-----0
 62
     2
  6
CONTINUOUS
 10
7.907426
 20
272.365356
 11
9.156834
 21
273.614777
  0
LINE
  8
LC-008-003-----0
 62
     2
  6
CONTINUOUS
 10
7.907426
 20
273.072479
 11
8.449727
 21
273.614777
  0
LINE
  8
LC-008-003-----0
 62
     2
  6
CONTINUOUS
 10
44.247456
 20
264.864777
 11
45.407425
 21
266.024750
  0
LINE
  8
LC-008-003-----0
 62
     2
  6
CONTINUOUS
 10
43.407425
 20
266.853180
 11
45.407425
 21
268.853180
  0
LINE
  8
LC-008-003-----0
 62
     2
  6
CONTINUOUS
 10
42.105942
 20
268.380096
 11
44.576248
 21
270.850403
  0
LINE
  8
LC-008-003-----0
 62
     2
  6
CONTINUOUS
 10
40.244190
 20
269.346802
 11
41.762173
 21
270.864777
  0
LINE
  8
LC-008-003-----0
 62
     2
  6
CONTINUOUS
 10
35.933746
 20
267.864777
 11
38.083748
 21
270.014771
  0
LINE
  8
LC-008-003-----0
 62
     2
  6
CONTINUOUS
 10
33.105320
 20
267.864777
 11
36.105320
 21
270.864777
  0
LINE
  8
LC-008-003-----0
 62
     2
  6
CONTINUOUS
 10
30.276892
 20
267.864777
 11
33.276890
 21
270.864777
  0
LINE
  8
LC-008-003-----0
 62
     2
  6
CONTINUOUS
 10
27.448463
 20
267.864777
 11
30.448463
 21
270.864777
  0
LINE
  8
LC-008-003-----0
 62
     2
  6
CONTINUOUS
 10
24.620037
 20
267.864777
 11
27.620037
 21
270.864777
  0
LINE
  8
LC-008-003-----0
 62
     2
  6
CONTINUOUS
 10
21.791611
 20
267.864777
 11
24.791611
 21
270.864777
  0
LINE
  8
LC-008-003-----0
 62
     2
  6
CONTINUOUS
 10
18.963182
 20
267.864777
 11
21.963182
 21
270.864777
  0
LINE
  8
LC-008-003-----0
 62
     2
  6
CONTINUOUS
 10
16.134756
 20
267.864777
 11
19.134756
 21
270.864777
  0
LINE
  8
LC-008-003-----0
 62
     2
  6
CONTINUOUS
 10
13.306329
 20
267.864777
 11
16.306330
 21
270.864777
  0
LINE
  8
LC-008-003-----0
 62
     2
  6
CONTINUOUS
 10
10.477902
 20
267.864777
 11
13.477902
 21
270.864777
  0
LINE
  8
LC-008-003-----0
 62
     2
  6
CONTINUOUS
 10
8.182981
 20
268.398285
 11
10.649474
 21
270.864777
  0
LINE
  8
LC-008-003-----0
 62
     2
  6
CONTINUOUS
 10
1.821047
 20
264.864777
 11
2.407426
 21
265.451141
  0
LINE
  8
LC-008-003-----0
 62
     2
  6
CONTINUOUS
 10
6.109308
 20
269.153046
 11
7.821047
 21
270.864777
  0
LINE
  8
LC-008-003-----0
 62
     2
  6
CONTINUOUS
 10
0.407426
 20
266.279572
 11
4.992620
 21
270.864777
  0
LINE
  8
LC-008-003-----0
 62
     2
  6
CONTINUOUS
 10
0.407426
 20
269.108002
 11
2.164193
 21
270.864777
  0
LINE
  8
LC-008-003-----0
 62
     2
  6
CONTINUOUS
 10
37.907425
 20
273.219543
 11
35.262215
 21
275.864777
  0
LINE
  8
LC-008-003-----0
 62
     2
  6
CONTINUOUS
 10
37.433788
 20
270.864777
 11
32.433788
 21
275.864777
  0
LINE
  8
LC-008-003-----0
 62
     2
  6
CONTINUOUS
 10
34.605358
 20
270.864777
 11
29.605362
 21
275.864777
  0
LINE
  8
LC-008-003-----0
 62
     2
  6
CONTINUOUS
 10
31.776932
 20
270.864777
 11
26.776932
 21
275.864777
  0
LINE
  8
LC-008-003-----0
 62
     2
  6
CONTINUOUS
 10
17.907427
 20
284.734283
 11
17.776932
 21
284.864777
  0
LINE
  8
LC-008-003-----0
 62
     2
  6
CONTINUOUS
 10
28.948505
 20
270.864777
 11
23.948505
 21
275.864777
  0
LINE
  8
LC-008-003-----0
 62
     2
  6
CONTINUOUS
 10
17.907427
 20
281.905853
 11
14.948504
 21
284.864777
  0
LINE
  8
LC-008-003-----0
 62
     2
  6
CONTINUOUS
 10
26.120077
 20
270.864777
 11
21.120077
 21
275.864777
  0
LINE
  8
LC-008-003-----0
 62
     2
  6
CONTINUOUS
 10
17.907427
 20
279.077423
 11
12.120077
 21
284.864777
  0
LINE
  8
LC-008-003-----0
 62
     2
  6
CONTINUOUS
 10
23.291651
 20
270.864777
 11
9.291651
 21
284.864777
  0
LINE
  8
LC-008-003-----0
 62
     2
  6
CONTINUOUS
 10
20.463224
 20
270.864777
 11
7.907425
 21
283.420563
  0
LINE
  8
LC-008-003-----0
 62
     2
  6
CONTINUOUS
 10
17.634796
 20
270.864777
 11
7.907427
 21
280.592133
  0
LINE
  8
LC-008-003-----0
 62
     2
  6
CONTINUOUS
 10
14.806370
 20
270.864777
 11
9.407426
 21
276.263702
  0
LINE
  8
LC-008-003-----0
 62
     2
  6
CONTINUOUS
 10
9.306370
 20
276.364777
 11
7.907426
 21
277.763702
  0
LINE
  8
LC-008-003-----0
 62
     2
  6
CONTINUOUS
 10
11.977943
 20
270.864777
 11
9.407426
 21
273.435272
  0
LINE
  8
LC-002-021-SLN-3
 62
     2
  6
CENTER
 10
-118.535919
 20
242.164764
 11
-118.535919
 21
225.564774
  0
LINE
  8
LC-003-002-----0
 62
     1
  6
CONTINUOUS
 10
-10.350857
 20
264.864777
 11
0.407426
 21
264.864777
  0
LINE
  8
LC-003-002-----0
 62
     1
  6
CONTINUOUS
 10
0.407426
 20
264.864777
 11
45.407425
 21
264.864777
  0
LINE
  8
LC-003-002-----0
 62
     1
  6
CONTINUOUS
 10
45.407425
 20
264.864777
 11
55.905209
 21
264.864777
  0
LINE
  8
LC-003-002-----0
 62
     1
  6
CONTINUOUS
 10
9.407426
 20
273.614777
 11
9.407426
 21
270.014771
  0
LINE
  8
LC-002-021-SLN-3
 62
     2
  6
CENTER
 10
-110.235916
 20
233.864777
 11
-126.835915
 21
233.864777
  0
LINE
  8
LC-003-002-----0
 62
     1
  6
CONTINUOUS
 10
-118.535919
 20
224.864777
 11
-76.535919
 21
224.864777
  0
LINE
  8
LC-003-002-----0
 62
     1
  6
CONTINUOUS
 10
-127.535919
 20
233.864777
 11
-127.535919
 21
275.864777
  0
LINE
  8
LC-003-002-----0
 62
     1
  6
CONTINUOUS
 10
-118.535919
 20
284.864777
 11
-76.535919
 21
284.864777
  0
LINE
  8
LC-003-002-----0
 62
     1
  6
CONTINUOUS
 10
-67.535919
 20
233.864777
 11
-67.535919
 21
275.864777
  0
LINE
  8
LC-002-021-SLN-3
 62
     2
  6
CENTER
 10
-110.235916
 20
275.864777
 11
-126.835915
 21
275.864777
  0
LINE
  8
LC-002-021-SLN-3
 62
     2
  6
CENTER
 10
-118.535919
 20
284.164764
 11
-118.535919
 21
267.564758
  0
LINE
  8
LC-002-021-SLN-3
 62
     2
  6
CENTER
 10
-68.235916
 20
275.864777
 11
-84.835915
 21
275.864777
  0
LINE
  8
LC-002-021-SLN-3
 62
     2
  6
CENTER
 10
-76.535919
 20
284.164764
 11
-76.535919
 21
267.564758
  0
LINE
  8
LC-002-021-SLN-3
 62
     2
  6
CENTER
 10
-97.535919
 20
219.864777
 11
-97.535919
 21
289.864777
  0
LINE
  8
LC-002-021-SLN-3
 62
     2
  6
CENTER
 10
-62.535915
 20
254.864777
 11
-132.535919
 21
254.864777
  0
CIRCLE
  8
LC-003-002-----0
 62
     1
  6
CONTINUOUS
 10
-76.535919
 20
275.864777
 40
3.300000
  0
CIRCLE
  8
LC-003-002-----0
 62
     1
  6
CONTINUOUS
 10
-76.535919
 20
233.864777
 40
3.300000
  0
CIRCLE
  8
LC-003-002-----0
 62
     1
  6
CONTINUOUS
 10
-118.535919
 20
233.864777
 40
3.300000
  0
CIRCLE
  8
LC-003-002-----0
 62
     1
  6
CONTINUOUS
 10
-118.535919
 20
275.864777
 40
3.300000
  0
LINE
  8
LC-002-021-SLN-3
 62
     2
  6
CENTER
 10
-68.235916
 20
233.864777
 11
-84.835915
 21
233.864777
  0
LINE
  8
LC-002-021-SLN-3
 62
     2
  6
CENTER
 10
-76.535919
 20
242.164764
 11
-76.535919
 21
225.564774
  0
ARC
  8
LC-003-002-----0
 62
     1
  6
CONTINUOUS
 10
-118.535919
 20
275.864777
 40
9.000000
 50
90.000003
 51
180.000009
  0
ARC
  8
LC-003-002-----0
 62
     1
  6
CONTINUOUS
 10
-76.535919
 20
275.864777
 40
9.000000
 50
0.000000
 51
90.000003
  0
ARC
  8
LC-003-002-----0
 62
     1
  6
CONTINUOUS
 10
-76.535919
 20
233.864777
 40
9.000000
 50
269.999997
 51
0.000000
  0
ARC
  8
LC-003-002-----0
 62
     1
  6
CONTINUOUS
 10
-118.535919
 20
233.864777
 40
9.000000
 50
180.000009
 51
269.999997
  0
CIRCLE
  8
LC-003-002-----0
 62
     1
  6
CONTINUOUS
 10
-97.535919
 20
254.864777
 40
21.000000
  0
CIRCLE
  8
LC-003-002-----0
 62
     1
  6
CONTINUOUS
 10
-97.535919
 20
254.864777
 40
10.000000
  0
LINE
  8
LC-003-002-----0
 62
     1
  6
CONTINUOUS
 10
7.907426
 20
284.864777
 11
17.907427
 21
284.864777
  0
LINE
  8
LC-003-002-----0
 62
     1
  6
CONTINUOUS
 10
19.407427
 20
275.864777
 11
37.907425
 21
275.864777
  0
LINE
  8
LC-003-002-----0
 62
     1
  6
CONTINUOUS
 10
7.907426
 20
224.864777
 11
17.907427
 21
224.864777
  0
LINE
  8
LC-001-150-----0
 62
     2
  6
DASHED
 10
7.907426
 20
230.564774
 11
17.907427
 21
230.564774
  0
LINE
  8
LC-001-150-----0
 62
     2
  6
DASHED
 10
7.907426
 20
237.164764
 11
17.907427
 21
237.164764
  0
LINE
  8
LC-008-003-----0
 62
     2
  6
CONTINUOUS
 10
-10.350857
 20
264.864777
 11
-11.131914
 21
258.761688
  0
LINE
  8
LC-003-002-----0
 62
     1
  6
CONTINUOUS
 10
36.166077
 20
267.864777
 11
9.648774
 21
267.864777
  0
LINE
  8
LC-003-002-----0
 62
     1
  6
CONTINUOUS
 10
19.407427
 20
233.864777
 11
36.907425
 21
233.864777
  0
LINE
  8
LC-003-002-----0
 62
     1
  6
CONTINUOUS
 10
-10.573943
 20
244.864777
 11
0.407426
 21
244.864777
  0
LINE
  8
LC-003-002-----0
 62
     1
  6
CONTINUOUS
 10
1.407426
 20
270.864777
 11
7.907426
 21
270.864777
  0
LINE
  8
LC-003-002-----0
 62
     1
  6
CONTINUOUS
 10
5.646955
 20
269.321320
 11
9.648776
 21
267.864777
  0
LINE
  8
LC-003-002-----0
 62
     1
  6
CONTINUOUS
 10
1.407426
 20
238.864777
 11
7.907426
 21
238.864777
  0
LINE
  8
LC-003-002-----0
 62
     1
  6
CONTINUOUS
 10
0.407426
 20
269.864777
 11
0.407426
 21
264.864777
  0
LINE
  8
LC-003-002-----0
 62
     1
  6
CONTINUOUS
 10
45.407425
 20
269.864777
 11
45.407425
 21
264.864777
  0
LINE
  8
LC-008-003-----0
 62
     2
  6
CONTINUOUS
 10
-11.131914
 20
258.761688
 11
-9.517990
 21
251.368912
  0
LINE
  8
LC-003-002-----0
 62
     1
  6
CONTINUOUS
 10
37.907425
 20
233.864777
 11
37.907425
 21
254.864777
  0
LINE
  8
LC-003-002-----0
 62
     1
  6
CONTINUOUS
 10
7.907426
 20
224.864777
 11
7.907426
 21
254.864777
  0
LINE
  8
LC-003-002-----0
 62
     1
  6
CONTINUOUS
 10
17.907427
 20
224.864777
 11
17.907427
 21
254.864777
  0
LINE
  8
LC-008-003-----0
 62
     2
  6
CONTINUOUS
 10
-9.517990
 20
251.368896
 11
-10.573943
 21
244.864777
  0
LINE
  8
LC-008-003-----0
 62
     2
  6
CONTINUOUS
 10
55.905209
 20
264.864777
 11
57.869549
 21
259.953278
  0
LINE
  8
LC-008-003-----0
 62
     2
  6
CONTINUOUS
 10
57.869549
 20
259.953278
 11
56.578407
 21
252.441330
  0
LINE
  8
LC-008-003-----0
 62
     2
  6
CONTINUOUS
 10
56.578407
 20
252.441315
 11
58.175941
 21
244.864777
  0
LINE
  8
LC-002-021-SLN-3
 62
     2
  6
CENTER
 10
61.994946
 20
254.864777
 11
-15.281175
 21
254.864777
  0
ARC
  8
LC-003-002-----0
 62
     1
  6
CONTINUOUS
 10
-97.535919
 20
255.764771
 40
17.850000
 50
294.491977
 51
245.508025
  0
LINE
  8
LC-003-002-----0
 62
     1
  6
CONTINUOUS
 10
0.407426
 20
254.864777
 11
0.407426
 21
239.864777
  0
LINE
  8
LC-003-002-----0
 62
     1
  6
CONTINUOUS
 10
7.907426
 20
270.014771
 11
7.907426
 21
284.864777
  0
LINE
  8
LC-003-002-----0
 62
     1
  6
CONTINUOUS
 10
17.907427
 20
277.364777
 11
17.907427
 21
284.864777
  0
CIRCLE
  8
LC-003-002-----0
 62
     1
  6
CONTINUOUS
 10
22.907427
 20
266.364777
 40
1.500000
  0
LINE
  8
LC-003-002-----0
 62
     1
  6
CONTINUOUS
 10
45.407425
 20
254.864777
 11
45.407425
 21
239.864777
  0
LINE
  8
LC-003-002-----0
 62
     1
  6
CONTINUOUS
 10
45.407425
 20
244.864777
 11
58.175941
 21
244.864777
  0
LINE
  8
LC-003-002-----0
 62
     1
  6
CONTINUOUS
 10
39.407425
 20
238.864777
 11
44.407425
 21
238.864777
  0
CIRCLE
  8
LC-003-002-----0
 62
     1
  6
CONTINUOUS
 10
-97.535919
 20
254.864777
 40
16.000000
  0
LINE
  8
LC-002-021-SLN-3
 62
     2
  6
CENTER
 10
22.907427
 20
233.864777
 11
2.907425
 21
233.864777
  0
ARC
  8
LC-003-002-----0
 62
     1
  6
CONTINUOUS
 10
19.407427
 20
277.364777
 40
1.500000
 50
180.000009
 51
269.999997
  0
LINE
  8
LC-003-002-----0
 62
     1
  6
CONTINUOUS
 10
-104.935913
 20
239.520920
 11
-104.115150
 21
236.942535
  0
LINE
  8
LC-003-002-----0
 62
     1
  6
CONTINUOUS
 10
-102.078911
 20
235.168915
 11
-98.435913
 21
234.541519
  0
LINE
  8
LC-003-002-----0
 62
     1
  6
CONTINUOUS
 10
-96.635918
 20
234.541519
 11
-92.992920
 21
235.168915
  0
LINE
  8
LC-003-002-----0
 62
     1
  6
CONTINUOUS
 10
-90.135918
 20
239.520920
 11
-90.956680
 21
236.942535
  0
CIRCLE
  8
LC-003-002-----0
 62
     1
  6
CONTINUOUS
 10
-94.135918
 20
237.141525
 40
1.250000
  0
ARC
  8
LC-003-002-----0
 62
     1
  6
CONTINUOUS
 10
19.407427
 20
232.364777
 40
1.500000
 50
90.000003
 51
180.000009
  0
CIRCLE
  8
LC-003-002-----0
 62
     1
  6
CONTINUOUS
 10
-100.935913
 20
237.141525
 40
1.250000
  0
ARC
  8
LC-003-002-----0
 62
     1
  6
CONTINUOUS
 10
-101.637650
 20
237.731186
 40
2.600000
 50
197.657591
 51
260.228558
  0
ARC
  8
LC-003-002-----0
 62
     1
  6
CONTINUOUS
 10
-93.434189
 20
237.731186
 40
2.600000
 50
279.771437
 51
342.342409
  0
LINE
  8
LC-003-002-----0
 62
     1
  6
CONTINUOUS
 10
-96.635918
 20
238.890106
 11
-96.635918
 21
234.541519
  0
LINE
  8
LC-003-002-----0
 62
     1
  6
CONTINUOUS
 10
-98.435913
 20
238.890106
 11
-98.435913
 21
234.541519
  0
ARC
  8
LC-003-002-----0
 62
     1
  6
CONTINUOUS
 10
44.407425
 20
269.864777
 40
1.000000
 50
0.000000
 51
90.000003
  0
ARC
  8
LC-003-002-----0
 62
     1
  6
CONTINUOUS
 10
1.407426
 20
269.864777
 40
1.000000
 50
90.000003
 51
180.000009
  0
ARC
  8
LC-003-002-----0
 62
     1
  6
CONTINUOUS
 10
1.407426
 20
239.864777
 40
1.000000
 50
180.000009
 51
269.999997
  0
ARC
  8
LC-003-002-----0
 62
     1
  6
CONTINUOUS
 10
44.407425
 20
239.864777
 40
1.000000
 50
269.999997
 51
0.000000
  0
LINE
  8
LC-003-002-----0
 62
     1
  6
CONTINUOUS
 10
7.907426
 20
270.014771
 11
7.907426
 21
273.614777
  0
LINE
  8
LC-003-002-----0
 62
     1
  6
CONTINUOUS
 10
9.407426
 20
270.864777
 11
37.907425
 21
270.864777
  0
LINE
  8
LC-003-002-----0
 62
     1
  6
CONTINUOUS
 10
7.907426
 20
276.364777
 11
9.407426
 21
276.364777
  0
LINE
  8
LC-003-002-----0
 62
     1
  6
CONTINUOUS
 10
37.907425
 20
234.514771
 11
37.907425
 21
254.864777
  0
LINE
  8
LC-003-002-----0
 62
     1
  6
CONTINUOUS
 10
37.907425
 20
273.614777
 11
39.407425
 21
273.614777
  0
LINE
  8
LC-003-002-----0
 62
     1
  6
CONTINUOUS
 10
39.407425
 20
273.614777
 11
39.407425
 21
270.014771
  0
LINE
  8
LC-003-002-----0
 62
     1
  6
CONTINUOUS
 10
37.907425
 20
234.514771
 11
39.407425
 21
234.514771
  0
CIRCLE
  8
LC-003-002-----0
 62
     1
  6
CONTINUOUS
 10
25.907427
 20
266.364777
 40
1.500000
  0
CIRCLE
  8
LC-003-002-----0
 62
     1
  6
CONTINUOUS
 10
28.907427
 20
266.364777
 40
1.500000
  0
LINE
  8
LC-003-002-----0
 62
     1
  6
CONTINUOUS
 10
37.907425
 20
270.014771
 11
39.407425
 21
270.014771
  0
LINE
  8
LC-003-002-----0
 62
     1
  6
CONTINUOUS
 10
39.407425
 20
270.864777
 11
44.407425
 21
270.864777
  0
LINE
  8
LC-003-002-----0
 62
     1
  6
CONTINUOUS
 10
37.907425
 20
270.014771
 11
37.907425
 21
275.864777
  0
LINE
  8
LC-003-002-----0
 62
     1
  6
CONTINUOUS
 10
39.407425
 20
254.864777
 11
39.407425
 21
234.514771
  0
LINE
  8
LC-003-002-----0
 62
     1
  6
CONTINUOUS
 10
37.907425
 20
270.014771
 11
37.907425
 21
273.614777
  0
CIRCLE
  8
LC-003-002-----0
 62
     1
  6
CONTINUOUS
 10
31.907427
 20
266.364777
 40
1.500000
  0
CIRCLE
  8
LC-003-002-----0
 62
     1
  6
CONTINUOUS
 10
34.907425
 20
266.364777
 40
1.500000
  0
CIRCLE
  8
LC-003-002-----0
 62
     1
  6
CONTINUOUS
 10
37.861851
 20
266.885712
 40
1.500000
  0
CIRCLE
  8
LC-003-002-----0
 62
     1
  6
CONTINUOUS
 10
40.680927
 20
267.911774
 40
1.500000
  0
CIRCLE
  8
LC-003-002-----0
 62
     1
  6
CONTINUOUS
 10
19.907427
 20
266.364777
 40
1.500000
  0
CIRCLE
  8
LC-003-002-----0
 62
     1
  6
CONTINUOUS
 10
16.907427
 20
266.364777
 40
1.500000
  0
CIRCLE
  8
LC-003-002-----0
 62
     1
  6
CONTINUOUS
 10
13.907426
 20
266.364777
 40
1.500000
  0
CIRCLE
  8
LC-003-002-----0
 62
     1
  6
CONTINUOUS
 10
10.907426
 20
266.364777
 40
1.500000
  0
CIRCLE
  8
LC-003-002-----0
 62
     1
  6
CONTINUOUS
 10
7.953003
 20
266.885712
 40
1.500000
  0
CIRCLE
  8
LC-003-002-----0
 62
     1
  6
CONTINUOUS
 10
5.133925
 20
267.911774
 40
1.500000
  0
LINE
  8
LC-003-002-----0
 62
     1
  6
CONTINUOUS
 10
7.907426
 20
273.614777
 11
9.407426
 21
273.614777
  0
LINE
  8
LC-003-002-----0
 62
     1
  6
CONTINUOUS
 10
9.407426
 20
276.364777
 11
9.407426
 21
273.614777
  0
LINE
  8
LC-003-002-----0
 62
     1
  6
CONTINUOUS
 10
4.620895
 20
266.502228
 11
9.119796
 21
264.864777
  0
LINE
  8
LC-003-002-----0
 62
     1
  6
CONTINUOUS
 10
36.166077
 20
267.864777
 11
40.167896
 21
269.321320
  0
LINE
  8
LC-003-002-----0
 62
     1
  6
CONTINUOUS
 10
36.695057
 20
264.864777
 11
41.193958
 21
266.502228
  0
LINE
  8
LC-003-002-----0
 62
     1
  6
CONTINUOUS
 10
7.907426
 20
270.014771
 11
9.407426
 21
270.014771
  0
LINE
  8
LC-003-002-----0
 62
     1
  6
CONTINUOUS
 10
2.407426
 20
264.864777
 11
2.407426
 21
267.911774
  0
LINE
  8
LC-003-002-----0
 62
     1
  6
CONTINUOUS
 10
43.407425
 20
264.864777
 11
43.407425
 21
267.911774
  0
LINE
  8
LC-003-002-----0
 62
     1
  6
CONTINUOUS
 10
3.633925
 20
267.911774
 11
2.407426
 21
267.911774
  0
LINE
  8
LC-003-002-----0
 62
     1
  6
CONTINUOUS
 10
42.180927
 20
267.911774
 11
43.407425
 21
267.911774
  0
ENDSEC
  0
EOF
