  0
SECTION
  2
HEADER
  9
$LIMMIN
 10
139.483154
 20
545.574402
  9
$LIMMAX
 10
393.286713
 20
639.574402
  9
$EXTMIN
 10
139.483154
 20
545.574402
  9
$EXTMAX
 10
393.286713
 20
639.574402
  0
ENDSEC
  0
SECTION
  2
TABLES
  0
TABLE
  2
LTYPE
 70
     3
  0
LTYPE
  2
CONTINUOUS
 70
    64
  3
Ausgezogene Linie
 72
    65
 73
     0
 40
0.0
  0
LTYPE
  2
DASHED
 70
    64
  3
__ __ __ __ __ __ __ __ __ __ __ __ __ __ __
 72
    65
 73
     2
 40
0.75
 49
0.5
 49
-0.25
  0
LTYPE
  2
CENTER
 70
    64
  3
____ _ ____ _ ____ _ ____ _ ____ _ ____ _ ____
 72
    65
 73
     4
 40
2.0
 49
1.25
 49
-0.25
 49
0.25
 49
-0.25
  0
ENDTAB
  0
TABLE
  2
LAYER
 70
     5
  0
LAYER
  2
LC-INFO-1-1-MM-A0-0
 70
    64
 62
     7
  6
CONTINUOUS
  0
LAYER
  2
LC-003-002-----0
 70
    64
 62
     7
  6
CONTINUOUS
  0
LAYER
  2
LC-002-021-SLN-3
 70
    64
 62
     7
  6
CONTINUOUS
  0
LAYER
  2
LC-001-150-----0
 70
    64
 62
     7
  6
CONTINUOUS
  0
LAYER
  2
LC-008-003-----0
 70
    64
 62
     7
  6
CONTINUOUS
  0
ENDTAB
  0
TABLE
  2
STYLE
 70
     1
  0
STYLE
  2
TXT8
 70
    64
 40
0.0
 41
1.0
 50
0.0
 71
     0
 42
3.500000
  3
TXT8
  4

  0
ENDTAB
  0
ENDSEC
  0
SECTION
  2
BLOCKS
  0
ENDSEC
  0
SECTION
  2
ENTITIES
  0
LINE
  8
LC-008-003-----0
 62
     2
  6
CONTINUOUS
 10
365.249939
 20
621.871094
 11
363.546692
 21
623.574402
  0
LINE
  8
LC-008-003-----0
 62
     2
  6
CONTINUOUS
 10
365.249939
 20
619.042664
 11
360.718262
 21
623.574402
  0
LINE
  8
LC-008-003-----0
 62
     2
  6
CONTINUOUS
 10
365.249939
 20
616.214294
 11
357.889832
 21
623.574402
  0
LINE
  8
LC-008-003-----0
 62
     2
  6
CONTINUOUS
 10
362.561401
 20
616.074402
 11
355.061401
 21
623.574402
  0
LINE
  8
LC-008-003-----0
 62
     2
  6
CONTINUOUS
 10
359.732971
 20
616.074402
 11
352.232971
 21
623.574402
  0
LINE
  8
LC-008-003-----0
 62
     2
  6
CONTINUOUS
 10
356.904572
 20
616.074402
 11
349.404572
 21
623.574402
  0
LINE
  8
LC-008-003-----0
 62
     2
  6
CONTINUOUS
 10
354.076141
 20
616.074402
 11
346.576141
 21
623.574402
  0
LINE
  8
LC-008-003-----0
 62
     2
  6
CONTINUOUS
 10
351.247711
 20
616.074402
 11
343.747711
 21
623.574402
  0
LINE
  8
LC-008-003-----0
 62
     2
  6
CONTINUOUS
 10
348.419281
 20
616.074402
 11
340.919281
 21
623.574402
  0
LINE
  8
LC-008-003-----0
 62
     2
  6
CONTINUOUS
 10
345.590851
 20
616.074402
 11
338.090851
 21
623.574402
  0
LINE
  8
LC-008-003-----0
 62
     2
  6
CONTINUOUS
 10
329.249939
 20
632.415283
 11
327.090851
 21
634.574402
  0
LINE
  8
LC-008-003-----0
 62
     2
  6
CONTINUOUS
 10
342.762421
 20
616.074402
 11
335.262421
 21
623.574402
  0
LINE
  8
LC-008-003-----0
 62
     2
  6
CONTINUOUS
 10
329.249939
 20
629.586853
 11
324.262421
 21
634.574402
  0
LINE
  8
LC-008-003-----0
 62
     2
  6
CONTINUOUS
 10
339.933990
 20
616.074402
 11
332.433990
 21
623.574402
  0
LINE
  8
LC-008-003-----0
 62
     2
  6
CONTINUOUS
 10
329.249939
 20
626.758423
 11
321.433990
 21
634.574402
  0
LINE
  8
LC-008-003-----0
 62
     2
  6
CONTINUOUS
 10
337.105560
 20
616.074402
 11
318.605560
 21
634.574402
  0
LINE
  8
LC-008-003-----0
 62
     2
  6
CONTINUOUS
 10
334.277130
 20
616.074402
 11
315.777130
 21
634.574402
  0
LINE
  8
LC-008-003-----0
 62
     2
  6
CONTINUOUS
 10
331.448700
 20
616.074402
 11
315.249939
 21
632.273132
  0
LINE
  8
LC-008-003-----0
 62
     2
  6
CONTINUOUS
 10
328.620270
 20
616.074402
 11
315.249939
 21
629.444702
  0
LINE
  8
LC-008-003-----0
 62
     2
  6
CONTINUOUS
 10
325.791870
 20
616.074402
 11
315.249939
 21
626.616272
  0
LINE
  8
LC-008-003-----0
 62
     2
  6
CONTINUOUS
 10
322.963440
 20
616.074402
 11
316.999939
 21
622.037842
  0
LINE
  8
LC-008-003-----0
 62
     2
  6
CONTINUOUS
 10
315.463440
 20
623.574402
 11
315.249939
 21
623.787842
  0
LINE
  8
LC-008-003-----0
 62
     2
  6
CONTINUOUS
 10
320.135010
 20
616.074402
 11
316.999939
 21
619.209412
  0
LINE
  8
LC-008-003-----0
 62
     2
  6
CONTINUOUS
 10
317.306580
 20
616.074402
 11
316.999939
 21
616.380981
  0
LINE
  8
LC-008-003-----0
 62
     2
  6
CONTINUOUS
 10
372.814911
 20
607.574402
 11
374.249939
 21
609.009399
  0
LINE
  8
LC-008-003-----0
 62
     2
  6
CONTINUOUS
 10
372.749939
 20
610.337830
 11
374.249939
 21
611.837830
  0
LINE
  8
LC-008-003-----0
 62
     2
  6
CONTINUOUS
 10
371.802521
 20
612.218811
 11
374.247284
 21
614.663574
  0
LINE
  8
LC-008-003-----0
 62
     2
  6
CONTINUOUS
 10
370.119232
 20
613.363953
 11
372.827637
 21
616.072388
  0
LINE
  8
LC-008-003-----0
 62
     2
  6
CONTINUOUS
 10
366.520508
 20
612.593689
 11
370.001221
 21
616.074402
  0
LINE
  8
LC-008-003-----0
 62
     2
  6
CONTINUOUS
 10
362.922791
 20
611.824402
 11
366.422791
 21
615.324402
  0
LINE
  8
LC-008-003-----0
 62
     2
  6
CONTINUOUS
 10
366.999939
 20
615.901550
 11
367.172791
 21
616.074402
  0
LINE
  8
LC-008-003-----0
 62
     2
  6
CONTINUOUS
 10
360.094360
 20
611.824402
 11
364.344360
 21
616.074402
  0
LINE
  8
LC-008-003-----0
 62
     2
  6
CONTINUOUS
 10
357.265930
 20
611.824402
 11
361.515930
 21
616.074402
  0
LINE
  8
LC-008-003-----0
 62
     2
  6
CONTINUOUS
 10
354.437500
 20
611.824402
 11
358.687500
 21
616.074402
  0
LINE
  8
LC-008-003-----0
 62
     2
  6
CONTINUOUS
 10
351.609070
 20
611.824402
 11
355.859070
 21
616.074402
  0
LINE
  8
LC-008-003-----0
 62
     2
  6
CONTINUOUS
 10
348.780640
 20
611.824402
 11
353.030640
 21
616.074402
  0
LINE
  8
LC-008-003-----0
 62
     2
  6
CONTINUOUS
 10
345.952209
 20
611.824402
 11
350.202209
 21
616.074402
  0
LINE
  8
LC-008-003-----0
 62
     2
  6
CONTINUOUS
 10
343.123810
 20
611.824402
 11
347.373810
 21
616.074402
  0
LINE
  8
LC-008-003-----0
 62
     2
  6
CONTINUOUS
 10
340.295380
 20
611.824402
 11
344.545380
 21
616.074402
  0
LINE
  8
LC-008-003-----0
 62
     2
  6
CONTINUOUS
 10
337.466949
 20
611.824402
 11
341.716949
 21
616.074402
  0
LINE
  8
LC-008-003-----0
 62
     2
  6
CONTINUOUS
 10
334.638519
 20
611.824402
 11
338.888519
 21
616.074402
  0
LINE
  8
LC-008-003-----0
 62
     2
  6
CONTINUOUS
 10
331.810089
 20
611.824402
 11
336.060089
 21
616.074402
  0
LINE
  8
LC-008-003-----0
 62
     2
  6
CONTINUOUS
 10
328.981659
 20
611.824402
 11
333.231659
 21
616.074402
  0
LINE
  8
LC-008-003-----0
 62
     2
  6
CONTINUOUS
 10
326.153229
 20
611.824402
 11
330.403229
 21
616.074402
  0
LINE
  8
LC-008-003-----0
 62
     2
  6
CONTINUOUS
 10
323.324799
 20
611.824402
 11
327.574799
 21
616.074402
  0
LINE
  8
LC-008-003-----0
 62
     2
  6
CONTINUOUS
 10
320.496368
 20
611.824402
 11
324.746368
 21
616.074402
  0
LINE
  8
LC-008-003-----0
 62
     2
  6
CONTINUOUS
 10
317.667938
 20
611.824402
 11
321.917938
 21
616.074402
  0
LINE
  8
LC-008-003-----0
 62
     2
  6
CONTINUOUS
 10
315.283630
 20
612.268494
 11
319.089539
 21
616.074402
  0
LINE
  8
LC-008-003-----0
 62
     2
  6
CONTINUOUS
 10
313.019684
 20
612.832947
 11
315.511108
 21
615.324402
  0
LINE
  8
LC-008-003-----0
 62
     2
  6
CONTINUOUS
 10
306.249939
 20
608.891663
 11
307.749939
 21
610.391663
  0
LINE
  8
LC-008-003-----0
 62
     2
  6
CONTINUOUS
 10
310.727844
 20
613.369507
 11
313.432678
 21
616.074402
  0
LINE
  8
LC-008-003-----0
 62
     2
  6
CONTINUOUS
 10
306.249939
 20
611.720093
 11
310.604248
 21
616.074402
  0
LINE
  8
LC-008-003-----0
 62
     2
  6
CONTINUOUS
 10
306.249939
 20
614.548523
 11
307.775818
 21
616.074402
  0
LINE
  8
LC-008-003-----0
 62
     2
  6
CONTINUOUS
 10
366.069244
 20
615.324402
 11
366.999939
 21
616.255066
  0
LINE
  8
LC-008-003-----0
 62
     2
  6
CONTINUOUS
 10
365.249939
 20
615.565735
 11
366.999939
 21
617.315735
  0
LINE
  8
LC-008-003-----0
 62
     2
  6
CONTINUOUS
 10
365.249939
 20
616.626404
 11
366.999939
 21
618.376404
  0
LINE
  8
LC-008-003-----0
 62
     2
  6
CONTINUOUS
 10
365.249939
 20
617.687073
 11
366.999939
 21
619.437073
  0
LINE
  8
LC-008-003-----0
 62
     2
  6
CONTINUOUS
 10
365.249939
 20
618.747742
 11
366.826599
 21
620.324402
  0
LINE
  8
LC-008-003-----0
 62
     2
  6
CONTINUOUS
 10
365.249939
 20
619.808411
 11
365.765930
 21
620.324402
  0
LINE
  8
LC-008-003-----0
 62
     2
  6
CONTINUOUS
 10
316.218201
 20
615.324402
 11
316.999939
 21
616.106140
  0
LINE
  8
LC-008-003-----0
 62
     2
  6
CONTINUOUS
 10
315.249939
 20
615.416748
 11
316.999939
 21
617.166748
  0
LINE
  8
LC-008-003-----0
 62
     2
  6
CONTINUOUS
 10
315.249939
 20
616.477417
 11
316.999939
 21
618.227417
  0
LINE
  8
LC-008-003-----0
 62
     2
  6
CONTINUOUS
 10
315.249939
 20
617.538086
 11
316.999939
 21
619.288086
  0
LINE
  8
LC-008-003-----0
 62
     2
  6
CONTINUOUS
 10
315.249939
 20
618.598755
 11
316.975555
 21
620.324402
  0
LINE
  8
LC-008-003-----0
 62
     2
  6
CONTINUOUS
 10
315.249939
 20
619.659424
 11
315.914917
 21
620.324402
  0
LINE
  8
LC-003-002-----0
 62
     1
  6
CONTINUOUS
 10
287.527710
 20
607.574402
 11
306.249939
 21
607.574402
  0
LINE
  8
LC-003-002-----0
 62
     1
  6
CONTINUOUS
 10
306.249939
 20
607.574402
 11
374.249939
 21
607.574402
  0
LINE
  8
LC-003-002-----0
 62
     1
  6
CONTINUOUS
 10
374.249939
 20
607.574402
 11
387.019440
 21
607.574402
  0
LINE
  8
LC-003-002-----0
 62
     1
  6
CONTINUOUS
 10
365.249939
 20
615.324402
 11
365.249939
 21
620.324402
  0
LINE
  8
LC-002-021-SLN-3
 62
     2
  6
CENTER
 10
165.983154
 20
622.574402
 11
146.983154
 21
622.574402
  0
LINE
  8
LC-003-002-----0
 62
     1
  6
CONTINUOUS
 10
144.483154
 20
622.574402
 11
144.483154
 21
562.574402
  0
LINE
  8
LC-003-002-----0
 62
     1
  6
CONTINUOUS
 10
228.483154
 20
622.574402
 11
228.483154
 21
562.574402
  0
LINE
  8
LC-003-002-----0
 62
     1
  6
CONTINUOUS
 10
156.483154
 20
634.574402
 11
216.483154
 21
634.574402
  0
LINE
  8
LC-003-002-----0
 62
     1
  6
CONTINUOUS
 10
156.483154
 20
550.574402
 11
216.483154
 21
550.574402
  0
LINE
  8
LC-002-021-SLN-3
 62
     2
  6
CENTER
 10
156.483154
 20
632.074402
 11
156.483154
 21
613.074402
  0
LINE
  8
LC-002-021-SLN-3
 62
     2
  6
CENTER
 10
225.983154
 20
622.574402
 11
206.983154
 21
622.574402
  0
CIRCLE
  8
LC-003-002-----0
 62
     1
  6
CONTINUOUS
 10
156.483154
 20
622.574402
 40
4.500000
  0
LINE
  8
LC-002-021-SLN-3
 62
     2
  6
CENTER
 10
216.483154
 20
632.074402
 11
216.483154
 21
613.074402
  0
LINE
  8
LC-002-021-SLN-3
 62
     2
  6
CENTER
 10
225.983154
 20
562.574402
 11
206.983154
 21
562.574402
  0
CIRCLE
  8
LC-003-002-----0
 62
     1
  6
CONTINUOUS
 10
216.483154
 20
622.574402
 40
4.500000
  0
CIRCLE
  8
LC-003-002-----0
 62
     1
  6
CONTINUOUS
 10
216.483154
 20
562.574402
 40
4.500000
  0
CIRCLE
  8
LC-003-002-----0
 62
     1
  6
CONTINUOUS
 10
156.483154
 20
562.574402
 40
4.500000
  0
ARC
  8
LC-003-002-----0
 62
     1
  6
CONTINUOUS
 10
216.483154
 20
622.574402
 40
12.000000
 50
0.000000
 51
90.000003
  0
ARC
  8
LC-003-002-----0
 62
     1
  6
CONTINUOUS
 10
156.483154
 20
622.574402
 40
12.000000
 50
90.000003
 51
180.000009
  0
ARC
  8
LC-003-002-----0
 62
     1
  6
CONTINUOUS
 10
156.483154
 20
562.574402
 40
12.000000
 50
180.000009
 51
269.999997
  0
ARC
  8
LC-003-002-----0
 62
     1
  6
CONTINUOUS
 10
216.483154
 20
562.574402
 40
12.000000
 50
269.999997
 51
0.000000
  0
LINE
  8
LC-002-021-SLN-3
 62
     2
  6
CENTER
 10
216.483154
 20
572.074402
 11
216.483154
 21
553.074402
  0
LINE
  8
LC-002-021-SLN-3
 62
     2
  6
CENTER
 10
165.983154
 20
562.574402
 11
146.983154
 21
562.574402
  0
LINE
  8
LC-002-021-SLN-3
 62
     2
  6
CENTER
 10
156.483154
 20
572.074402
 11
156.483154
 21
553.074402
  0
LINE
  8
LC-002-021-SLN-3
 62
     2
  6
CENTER
 10
233.483154
 20
592.574402
 11
139.483154
 21
592.574402
  0
LINE
  8
LC-002-021-SLN-3
 62
     2
  6
CENTER
 10
186.483154
 20
639.574402
 11
186.483154
 21
545.574402
  0
CIRCLE
  8
LC-003-002-----0
 62
     1
  6
CONTINUOUS
 10
186.483154
 20
592.574402
 40
31.000000
  0
LINE
  8
LC-003-002-----0
 62
     1
  6
CONTINUOUS
 10
315.249939
 20
634.574402
 11
329.249939
 21
634.574402
  0
LINE
  8
LC-003-002-----0
 62
     1
  6
CONTINUOUS
 10
332.249939
 20
623.574402
 11
365.249939
 21
623.574402
  0
LINE
  8
LC-003-002-----0
 62
     1
  6
CONTINUOUS
 10
288.122406
 20
577.574402
 11
306.249939
 21
577.574402
  0
LINE
  8
LC-003-002-----0
 62
     1
  6
CONTINUOUS
 10
307.749939
 20
569.074402
 11
315.249939
 21
569.074402
  0
LINE
  8
LC-003-002-----0
 62
     1
  6
CONTINUOUS
 10
332.249939
 20
561.574402
 11
365.249939
 21
561.574402
  0
LINE
  8
LC-001-150-----0
 62
     2
  6
DASHED
 10
315.249939
 20
567.074402
 11
329.249939
 21
567.074402
  0
LINE
  8
LC-001-150-----0
 62
     2
  6
DASHED
 10
315.249939
 20
558.074402
 11
329.249939
 21
558.074402
  0
LINE
  8
LC-003-002-----0
 62
     1
  6
CONTINUOUS
 10
315.249939
 20
550.574402
 11
329.249939
 21
550.574402
  0
LINE
  8
LC-003-002-----0
 62
     1
  6
CONTINUOUS
 10
306.249939
 20
614.574402
 11
306.249939
 21
607.574402
  0
LINE
  8
LC-003-002-----0
 62
     1
  6
CONTINUOUS
 10
374.249939
 20
570.574402
 11
374.249939
 21
592.574402
  0
LINE
  8
LC-003-002-----0
 62
     1
  6
CONTINUOUS
 10
311.102325
 20
613.310974
 11
317.064880
 21
611.824402
  0
LINE
  8
LC-003-002-----0
 62
     1
  6
CONTINUOUS
 10
365.249939
 20
561.574402
 11
365.249939
 21
592.574402
  0
LINE
  8
LC-003-002-----0
 62
     1
  6
CONTINUOUS
 10
315.249939
 20
550.574402
 11
315.249939
 21
592.574402
  0
LINE
  8
LC-003-002-----0
 62
     1
  6
CONTINUOUS
 10
329.249939
 20
550.574402
 11
329.249939
 21
592.574402
  0
LINE
  8
LC-008-003-----0
 62
     2
  6
CONTINUOUS
 10
287.527710
 20
607.574402
 11
285.509705
 21
595.372681
  0
LINE
  8
LC-008-003-----0
 62
     2
  6
CONTINUOUS
 10
285.509705
 20
595.372681
 11
290.060303
 21
588.434387
  0
LINE
  8
LC-008-003-----0
 62
     2
  6
CONTINUOUS
 10
290.060303
 20
588.434387
 11
288.122406
 21
577.574402
  0
LINE
  8
LC-008-003-----0
 62
     2
  6
CONTINUOUS
 10
387.019440
 20
607.574402
 11
389.210907
 21
596.842590
  0
LINE
  8
LC-008-003-----0
 62
     2
  6
CONTINUOUS
 10
389.210907
 20
596.842590
 11
386.935608
 21
586.334534
  0
LINE
  8
LC-008-003-----0
 62
     2
  6
CONTINUOUS
 10
386.935608
 20
586.334534
 11
387.883759
 21
577.574402
  0
LINE
  8
LC-002-021-SLN-3
 62
     2
  6
CENTER
 10
393.286713
 20
592.574402
 11
282.345032
 21
592.574402
  0
LINE
  8
LC-003-002-----0
 62
     1
  6
CONTINUOUS
 10
306.249939
 20
592.574402
 11
306.249939
 21
570.574402
  0
LINE
  8
LC-003-002-----0
 62
     1
  6
CONTINUOUS
 10
315.249939
 20
615.324402
 11
315.249939
 21
634.574402
  0
LINE
  8
LC-003-002-----0
 62
     1
  6
CONTINUOUS
 10
365.249939
 20
620.324402
 11
365.249939
 21
623.574402
  0
ARC
  8
LC-003-002-----0
 62
     1
  6
CONTINUOUS
 10
332.249939
 20
626.574402
 40
3.000000
 50
180.000009
 51
269.999997
  0
LINE
  8
LC-003-002-----0
 62
     1
  6
CONTINUOUS
 10
374.249939
 20
607.574402
 11
374.249939
 21
614.574402
  0
LINE
  8
LC-003-002-----0
 62
     1
  6
CONTINUOUS
 10
374.249939
 20
577.574402
 11
387.883759
 21
577.574402
  0
LINE
  8
LC-003-002-----0
 62
     1
  6
CONTINUOUS
 10
329.249939
 20
626.574402
 11
329.249939
 21
634.574402
  0
LINE
  8
LC-003-002-----0
 62
     1
  6
CONTINUOUS
 10
366.999939
 20
569.074402
 11
372.749939
 21
569.074402
  0
ARC
  8
LC-003-002-----0
 62
     1
  6
CONTINUOUS
 10
332.249939
 20
558.574402
 40
3.000000
 50
90.000003
 51
180.000009
  0
LINE
  8
LC-002-021-SLN-3
 62
     2
  6
CENTER
 10
334.249939
 20
562.574402
 11
310.249939
 21
562.574402
  0
ARC
  8
LC-003-002-----0
 62
     1
  6
CONTINUOUS
 10
307.749939
 20
614.574402
 40
1.500000
 50
90.000003
 51
180.000009
  0
ARC
  8
LC-003-002-----0
 62
     1
  6
CONTINUOUS
 10
307.749939
 20
570.574402
 40
1.500000
 50
180.000009
 51
269.999997
  0
ARC
  8
LC-003-002-----0
 62
     1
  6
CONTINUOUS
 10
372.749939
 20
570.574402
 40
1.500000
 50
269.999997
 51
0.000000
  0
ARC
  8
LC-003-002-----0
 62
     1
  6
CONTINUOUS
 10
372.749939
 20
614.574402
 40
1.500000
 50
0.000000
 51
90.000003
  0
LINE
  8
LC-003-002-----0
 62
     1
  6
CONTINUOUS
 10
316.999939
 20
615.324402
 11
316.999939
 21
620.324402
  0
CIRCLE
  8
LC-003-002-----0
 62
     1
  6
CONTINUOUS
 10
186.483154
 20
592.574402
 40
15.000000
  0
LINE
  8
LC-003-002-----0
 62
     1
  6
CONTINUOUS
 10
365.249939
 20
562.924377
 11
365.249939
 21
592.574402
  0
LINE
  8
LC-003-002-----0
 62
     1
  6
CONTINUOUS
 10
365.249939
 20
620.324402
 11
366.999939
 21
620.324402
  0
LINE
  8
LC-003-002-----0
 62
     1
  6
CONTINUOUS
 10
366.999939
 20
620.324402
 11
366.999939
 21
615.324402
  0
LINE
  8
LC-003-002-----0
 62
     1
  6
CONTINUOUS
 10
365.249939
 20
562.924377
 11
366.999939
 21
562.924377
  0
LINE
  8
LC-003-002-----0
 62
     1
  6
CONTINUOUS
 10
363.435028
 20
611.824402
 11
317.064880
 21
611.824402
  0
LINE
  8
LC-003-002-----0
 62
     1
  6
CONTINUOUS
 10
307.749939
 20
616.074402
 11
315.249939
 21
616.074402
  0
LINE
  8
LC-003-002-----0
 62
     1
  6
CONTINUOUS
 10
365.249939
 20
615.324402
 11
366.999939
 21
615.324402
  0
LINE
  8
LC-003-002-----0
 62
     1
  6
CONTINUOUS
 10
372.749939
 20
616.074402
 11
366.999939
 21
616.074402
  0
LINE
  8
LC-003-002-----0
 62
     1
  6
CONTINUOUS
 10
310.074158
 20
609.187256
 11
316.543030
 21
607.574402
  0
LINE
  8
LC-003-002-----0
 62
     1
  6
CONTINUOUS
 10
315.249939
 20
615.324402
 11
315.249939
 21
620.324402
  0
LINE
  8
LC-003-002-----0
 62
     1
  6
CONTINUOUS
 10
365.249939
 20
616.074402
 11
316.999939
 21
616.074402
  0
LINE
  8
LC-003-002-----0
 62
     1
  6
CONTINUOUS
 10
315.249939
 20
620.324402
 11
316.999939
 21
620.324402
  0
LINE
  8
LC-003-002-----0
 62
     1
  6
CONTINUOUS
 10
315.249939
 20
623.574402
 11
316.999939
 21
623.574402
  0
LINE
  8
LC-003-002-----0
 62
     1
  6
CONTINUOUS
 10
366.999939
 20
592.574402
 11
366.999939
 21
562.924377
  0
LINE
  8
LC-003-002-----0
 62
     1
  6
CONTINUOUS
 10
315.249939
 20
615.324402
 11
316.999939
 21
615.324402
  0
CIRCLE
  8
LC-003-002-----0
 62
     1
  6
CONTINUOUS
 10
340.249939
 20
609.699402
 40
2.125000
  0
CIRCLE
  8
LC-003-002-----0
 62
     1
  6
CONTINUOUS
 10
344.509949
 20
609.699402
 40
2.125000
  0
CIRCLE
  8
LC-003-002-----0
 62
     1
  6
CONTINUOUS
 10
348.769958
 20
609.699402
 40
2.125000
  0
CIRCLE
  8
LC-003-002-----0
 62
     1
  6
CONTINUOUS
 10
353.029938
 20
609.699402
 40
2.125000
  0
CIRCLE
  8
LC-003-002-----0
 62
     1
  6
CONTINUOUS
 10
357.289948
 20
609.699402
 40
2.125000
  0
CIRCLE
  8
LC-003-002-----0
 62
     1
  6
CONTINUOUS
 10
361.549957
 20
609.699402
 40
2.125000
  0
CIRCLE
  8
LC-003-002-----0
 62
     1
  6
CONTINUOUS
 10
365.778198
 20
610.218567
 40
2.125000
  0
CIRCLE
  8
LC-003-002-----0
 62
     1
  6
CONTINUOUS
 10
369.911652
 20
611.249146
 40
2.125000
  0
CIRCLE
  8
LC-003-002-----0
 62
     1
  6
CONTINUOUS
 10
335.989960
 20
609.699402
 40
2.125000
  0
CIRCLE
  8
LC-003-002-----0
 62
     1
  6
CONTINUOUS
 10
331.729950
 20
609.699402
 40
2.125000
  0
CIRCLE
  8
LC-003-002-----0
 62
     1
  6
CONTINUOUS
 10
327.469940
 20
609.699402
 40
2.125000
  0
CIRCLE
  8
LC-003-002-----0
 62
     1
  6
CONTINUOUS
 10
323.209961
 20
609.699402
 40
2.125000
  0
CIRCLE
  8
LC-003-002-----0
 62
     1
  6
CONTINUOUS
 10
318.949951
 20
609.699402
 40
2.125000
  0
CIRCLE
  8
LC-003-002-----0
 62
     1
  6
CONTINUOUS
 10
314.721710
 20
610.218567
 40
2.125000
  0
CIRCLE
  8
LC-003-002-----0
 62
     1
  6
CONTINUOUS
 10
310.588226
 20
611.249146
 40
2.125000
  0
LINE
  8
LC-003-002-----0
 62
     1
  6
CONTINUOUS
 10
363.956848
 20
607.574402
 11
370.425751
 21
609.187256
  0
LINE
  8
LC-003-002-----0
 62
     1
  6
CONTINUOUS
 10
369.397583
 20
613.310974
 11
363.435028
 21
611.824402
  0
LINE
  8
LC-003-002-----0
 62
     1
  6
CONTINUOUS
 10
307.749939
 20
607.574402
 11
307.749939
 21
611.249146
  0
LINE
  8
LC-003-002-----0
 62
     1
  6
CONTINUOUS
 10
372.749939
 20
607.574402
 11
372.749939
 21
611.249146
  0
LINE
  8
LC-003-002-----0
 62
     1
  6
CONTINUOUS
 10
308.463226
 20
611.249146
 11
307.749939
 21
611.249146
  0
LINE
  8
LC-003-002-----0
 62
     1
  6
CONTINUOUS
 10
372.036652
 20
611.249146
 11
372.749939
 21
611.249146
  0
ARC
  8
LC-003-002-----0
 62
     1
  6
CONTINUOUS
 10
186.483154
 20
593.824402
 40
26.500000
 50
291.878617
 51
248.121378
  0
CIRCLE
  8
LC-003-002-----0
 62
     1
  6
CONTINUOUS
 10
186.483154
 20
592.574402
 40
24.000000
  0
LINE
  8
LC-003-002-----0
 62
     1
  6
CONTINUOUS
 10
176.608154
 20
569.233032
 11
177.670837
 21
566.042603
  0
LINE
  8
LC-003-002-----0
 62
     1
  6
CONTINUOUS
 10
180.403091
 20
563.725525
 11
185.233154
 21
562.958740
  0
LINE
  8
LC-003-002-----0
 62
     1
  6
CONTINUOUS
 10
187.733154
 20
562.958740
 11
192.563232
 21
563.725525
  0
LINE
  8
LC-003-002-----0
 62
     1
  6
CONTINUOUS
 10
196.358154
 20
569.233032
 11
195.295486
 21
566.042603
  0
CIRCLE
  8
LC-003-002-----0
 62
     1
  6
CONTINUOUS
 10
190.233154
 20
566.408752
 40
1.250000
  0
CIRCLE
  8
LC-003-002-----0
 62
     1
  6
CONTINUOUS
 10
182.733154
 20
566.408752
 40
1.250000
  0
ARC
  8
LC-003-002-----0
 62
     1
  6
CONTINUOUS
 10
180.944031
 20
567.132874
 40
3.450000
 50
198.422163
 51
260.979100
  0
ARC
  8
LC-003-002-----0
 62
     1
  6
CONTINUOUS
 10
192.022278
 20
567.132874
 40
3.450000
 50
279.020902
 51
341.577839
  0
LINE
  8
LC-003-002-----0
 62
     1
  6
CONTINUOUS
 10
187.733154
 20
568.606934
 11
187.733154
 21
562.958740
  0
LINE
  8
LC-003-002-----0
 62
     1
  6
CONTINUOUS
 10
185.233154
 20
568.606934
 11
185.233154
 21
562.958740
  0
LINE
  8
LC-003-002-----0
 62
     1
  6
CONTINUOUS
 10
316.999939
 20
620.324402
 11
316.999939
 21
623.574402
  0
ENDSEC
  0
EOF
