  0
SECTION
  2
HEADER
  9
$LIMMIN
 10
539.265686
 20
459.787872
  9
$LIMMAX
 10
931.427185
 20
629.787903
  9
$EXTMIN
 10
539.265686
 20
459.787872
  9
$EXTMAX
 10
931.427185
 20
629.787903
  0
ENDSEC
  0
SECTION
  2
TABLES
  0
TABLE
  2
LTYPE
 70
     3
  0
LTYPE
  2
CONTINUOUS
 70
    64
  3
Ausgezogene Linie
 72
    65
 73
     0
 40
0.0
  0
LTYPE
  2
DASHED
 70
    64
  3
__ __ __ __ __ __ __ __ __ __ __ __ __ __ __
 72
    65
 73
     2
 40
0.75
 49
0.5
 49
-0.25
  0
LTYPE
  2
CENTER
 70
    64
  3
____ _ ____ _ ____ _ ____ _ ____ _ ____ _ ____
 72
    65
 73
     4
 40
2.0
 49
1.25
 49
-0.25
 49
0.25
 49
-0.25
  0
ENDTAB
  0
TABLE
  2
LAYER
 70
     5
  0
LAYER
  2
LC-INFO-1-1-MM-A0-0
 70
    64
 62
     7
  6
CONTINUOUS
  0
LAYER
  2
LC-003-002-----0
 70
    64
 62
     7
  6
CONTINUOUS
  0
LAYER
  2
LC-002-021-SLN-3
 70
    64
 62
     7
  6
CONTINUOUS
  0
LAYER
  2
LC-001-150-----0
 70
    64
 62
     7
  6
CONTINUOUS
  0
LAYER
  2
LC-008-003-----0
 70
    64
 62
     7
  6
CONTINUOUS
  0
ENDTAB
  0
TABLE
  2
STYLE
 70
     1
  0
STYLE
  2
TXT8
 70
    64
 40
0.0
 41
1.0
 50
0.0
 71
     0
 42
3.500000
  3
TXT8
  4

  0
ENDTAB
  0
ENDSEC
  0
SECTION
  2
BLOCKS
  0
ENDSEC
  0
SECTION
  2
ENTITIES
  0
LINE
  8
LC-008-003-----0
 62
     2
  6
CONTINUOUS
 10
905.713867
 20
574.787903
 11
906.759277
 21
575.833313
  0
LINE
  8
LC-008-003-----0
 62
     2
  6
CONTINUOUS
 10
901.759277
 20
575.075989
 11
906.759277
 21
580.075989
  0
LINE
  8
LC-008-003-----0
 62
     2
  6
CONTINUOUS
 10
901.759277
 20
579.318604
 11
906.759277
 21
584.318604
  0
LINE
  8
LC-008-003-----0
 62
     2
  6
CONTINUOUS
 10
898.885925
 20
580.687866
 11
906.530579
 21
588.332520
  0
LINE
  8
LC-008-003-----0
 62
     2
  6
CONTINUOUS
 10
896.327454
 20
582.372070
 11
903.743286
 21
589.787903
  0
LINE
  8
LC-008-003-----0
 62
     2
  6
CONTINUOUS
 10
893.850403
 20
584.137634
 11
899.500671
 21
589.787903
  0
LINE
  8
LC-008-003-----0
 62
     2
  6
CONTINUOUS
 10
888.974548
 20
583.504395
 11
893.759277
 21
588.289185
  0
LINE
  8
LC-008-003-----0
 62
     2
  6
CONTINUOUS
 10
883.854126
 20
582.626587
 11
891.015381
 21
589.787903
  0
LINE
  8
LC-008-003-----0
 62
     2
  6
CONTINUOUS
 10
878.733704
 20
581.748840
 11
886.772705
 21
589.787903
  0
LINE
  8
LC-008-003-----0
 62
     2
  6
CONTINUOUS
 10
874.479736
 20
581.737549
 11
882.530090
 21
589.787903
  0
LINE
  8
LC-008-003-----0
 62
     2
  6
CONTINUOUS
 10
870.237122
 20
581.737549
 11
878.287476
 21
589.787903
  0
LINE
  8
LC-008-003-----0
 62
     2
  6
CONTINUOUS
 10
865.994507
 20
581.737549
 11
874.044800
 21
589.787903
  0
LINE
  8
LC-008-003-----0
 62
     2
  6
CONTINUOUS
 10
861.751831
 20
581.737549
 11
869.802185
 21
589.787903
  0
LINE
  8
LC-008-003-----0
 62
     2
  6
CONTINUOUS
 10
857.509216
 20
581.737549
 11
865.559509
 21
589.787903
  0
LINE
  8
LC-008-003-----0
 62
     2
  6
CONTINUOUS
 10
853.266541
 20
581.737549
 11
861.316895
 21
589.787903
  0
LINE
  8
LC-008-003-----0
 62
     2
  6
CONTINUOUS
 10
849.023926
 20
581.737549
 11
857.074219
 21
589.787903
  0
LINE
  8
LC-008-003-----0
 62
     2
  6
CONTINUOUS
 10
844.790955
 20
581.747253
 11
852.831604
 21
589.787903
  0
LINE
  8
LC-008-003-----0
 62
     2
  6
CONTINUOUS
 10
840.538635
 20
581.737549
 11
848.588989
 21
589.787903
  0
LINE
  8
LC-008-003-----0
 62
     2
  6
CONTINUOUS
 10
836.296021
 20
581.737549
 11
844.346313
 21
589.787903
  0
LINE
  8
LC-008-003-----0
 62
     2
  6
CONTINUOUS
 10
832.053345
 20
581.737549
 11
840.103699
 21
589.787903
  0
LINE
  8
LC-008-003-----0
 62
     2
  6
CONTINUOUS
 10
827.810730
 20
581.737549
 11
835.861023
 21
589.787903
  0
LINE
  8
LC-008-003-----0
 62
     2
  6
CONTINUOUS
 10
823.601624
 20
581.771118
 11
831.618408
 21
589.787903
  0
LINE
  8
LC-008-003-----0
 62
     2
  6
CONTINUOUS
 10
819.325439
 20
581.737549
 11
827.375732
 21
589.787903
  0
LINE
  8
LC-008-003-----0
 62
     2
  6
CONTINUOUS
 10
815.082825
 20
581.737549
 11
823.133118
 21
589.787903
  0
LINE
  8
LC-008-003-----0
 62
     2
  6
CONTINUOUS
 10
810.840149
 20
581.737549
 11
818.890503
 21
589.787903
  0
LINE
  8
LC-008-003-----0
 62
     2
  6
CONTINUOUS
 10
807.073608
 20
582.213623
 11
814.647827
 21
589.787903
  0
LINE
  8
LC-008-003-----0
 62
     2
  6
CONTINUOUS
 10
803.451843
 20
582.834473
 11
810.405212
 21
589.787903
  0
LINE
  8
LC-008-003-----0
 62
     2
  6
CONTINUOUS
 10
799.830078
 20
583.455383
 11
806.162537
 21
589.787903
  0
LINE
  8
LC-008-003-----0
 62
     2
  6
CONTINUOUS
 10
796.208313
 20
584.076233
 11
801.919922
 21
589.787903
  0
LINE
  8
LC-008-003-----0
 62
     2
  6
CONTINUOUS
 10
782.677246
 20
574.787903
 11
786.759277
 21
578.869873
  0
LINE
  8
LC-008-003-----0
 62
     2
  6
CONTINUOUS
 10
788.577271
 20
580.687866
 11
795.927246
 21
588.037903
  0
LINE
  8
LC-008-003-----0
 62
     2
  6
CONTINUOUS
 10
781.759277
 20
578.112549
 11
793.434631
 21
589.787903
  0
LINE
  8
LC-008-003-----0
 62
     2
  6
CONTINUOUS
 10
781.759277
 20
582.355164
 11
789.192017
 21
589.787903
  0
LINE
  8
LC-008-003-----0
 62
     2
  6
CONTINUOUS
 10
781.759277
 20
586.597839
 11
784.949341
 21
589.787903
  0
LINE
  8
LC-008-003-----0
 62
     2
  6
CONTINUOUS
 10
893.759277
 20
598.236023
 11
888.207458
 21
603.787903
  0
LINE
  8
LC-008-003-----0
 62
     2
  6
CONTINUOUS
 10
893.759277
 20
591.164917
 11
881.136353
 21
603.787903
  0
LINE
  8
LC-008-003-----0
 62
     2
  6
CONTINUOUS
 10
888.065308
 20
589.787903
 11
874.065308
 21
603.787903
  0
LINE
  8
LC-008-003-----0
 62
     2
  6
CONTINUOUS
 10
880.994202
 20
589.787903
 11
866.994202
 21
603.787903
  0
LINE
  8
LC-008-003-----0
 62
     2
  6
CONTINUOUS
 10
873.923157
 20
589.787903
 11
859.923157
 21
603.787903
  0
LINE
  8
LC-008-003-----0
 62
     2
  6
CONTINUOUS
 10
866.852112
 20
589.787903
 11
852.852112
 21
603.787903
  0
LINE
  8
LC-008-003-----0
 62
     2
  6
CONTINUOUS
 10
859.781006
 20
589.787903
 11
845.781006
 21
603.787903
  0
LINE
  8
LC-008-003-----0
 62
     2
  6
CONTINUOUS
 10
852.709961
 20
589.787903
 11
838.709961
 21
603.787903
  0
LINE
  8
LC-008-003-----0
 62
     2
  6
CONTINUOUS
 10
845.638916
 20
589.787903
 11
831.638916
 21
603.787903
  0
LINE
  8
LC-008-003-----0
 62
     2
  6
CONTINUOUS
 10
816.759277
 20
618.667480
 11
810.638916
 21
624.787903
  0
LINE
  8
LC-008-003-----0
 62
     2
  6
CONTINUOUS
 10
838.567810
 20
589.787903
 11
824.567810
 21
603.787903
  0
LINE
  8
LC-008-003-----0
 62
     2
  6
CONTINUOUS
 10
816.759277
 20
611.596375
 11
803.567810
 21
624.787903
  0
LINE
  8
LC-008-003-----0
 62
     2
  6
CONTINUOUS
 10
831.496765
 20
589.787903
 11
796.496765
 21
624.787903
  0
LINE
  8
LC-008-003-----0
 62
     2
  6
CONTINUOUS
 10
824.425659
 20
589.787903
 11
794.759277
 21
619.454285
  0
LINE
  8
LC-008-003-----0
 62
     2
  6
CONTINUOUS
 10
817.354614
 20
589.787903
 11
794.759277
 21
612.383179
  0
LINE
  8
LC-008-003-----0
 62
     2
  6
CONTINUOUS
 10
810.283569
 20
589.787903
 11
797.909302
 21
602.162109
  0
LINE
  8
LC-008-003-----0
 62
     2
  6
CONTINUOUS
 10
795.283569
 20
604.787903
 11
794.759277
 21
605.312134
  0
LINE
  8
LC-008-003-----0
 62
     2
  6
CONTINUOUS
 10
803.212463
 20
589.787903
 11
797.909302
 21
595.091064
  0
LINE
  8
LC-008-003-----0
 62
     2
  6
CONTINUOUS
 10
896.336426
 20
588.037903
 11
896.909302
 21
588.610718
  0
LINE
  8
LC-008-003-----0
 62
     2
  6
CONTINUOUS
 10
894.922241
 20
588.037903
 11
896.909302
 21
590.024963
  0
LINE
  8
LC-008-003-----0
 62
     2
  6
CONTINUOUS
 10
893.759277
 20
588.289185
 11
896.909302
 21
591.439148
  0
LINE
  8
LC-008-003-----0
 62
     2
  6
CONTINUOUS
 10
893.759277
 20
589.703369
 11
896.909302
 21
592.853394
  0
LINE
  8
LC-008-003-----0
 62
     2
  6
CONTINUOUS
 10
893.759277
 20
591.117615
 11
896.909302
 21
594.267578
  0
LINE
  8
LC-008-003-----0
 62
     2
  6
CONTINUOUS
 10
893.759277
 20
592.531799
 11
896.909302
 21
595.681824
  0
LINE
  8
LC-008-003-----0
 62
     2
  6
CONTINUOUS
 10
893.759277
 20
593.946045
 11
896.909302
 21
597.096008
  0
LINE
  8
LC-008-003-----0
 62
     2
  6
CONTINUOUS
 10
893.759277
 20
595.360229
 11
896.586914
 21
598.187866
  0
LINE
  8
LC-008-003-----0
 62
     2
  6
CONTINUOUS
 10
893.759277
 20
596.774475
 11
895.172729
 21
598.187866
  0
LINE
  8
LC-008-003-----0
 62
     2
  6
CONTINUOUS
 10
797.341492
 20
588.037903
 11
797.909302
 21
588.605713
  0
LINE
  8
LC-008-003-----0
 62
     2
  6
CONTINUOUS
 10
795.927246
 20
588.037903
 11
797.909302
 21
590.019897
  0
LINE
  8
LC-008-003-----0
 62
     2
  6
CONTINUOUS
 10
794.759277
 20
588.284119
 11
797.909302
 21
591.434143
  0
LINE
  8
LC-008-003-----0
 62
     2
  6
CONTINUOUS
 10
794.759277
 20
589.698303
 11
797.909302
 21
592.848328
  0
LINE
  8
LC-008-003-----0
 62
     2
  6
CONTINUOUS
 10
794.759277
 20
591.112549
 11
797.909302
 21
594.262573
  0
LINE
  8
LC-008-003-----0
 62
     2
  6
CONTINUOUS
 10
794.759277
 20
592.526733
 11
797.909302
 21
595.676758
  0
LINE
  8
LC-008-003-----0
 62
     2
  6
CONTINUOUS
 10
794.759277
 20
593.940979
 11
797.909302
 21
597.090942
  0
LINE
  8
LC-008-003-----0
 62
     2
  6
CONTINUOUS
 10
794.759277
 20
595.355164
 11
797.591980
 21
598.187866
  0
LINE
  8
LC-008-003-----0
 62
     2
  6
CONTINUOUS
 10
794.759277
 20
596.769409
 11
796.177795
 21
598.187866
  0
LINE
  8
LC-008-003-----0
 62
     2
  6
CONTINUOUS
 10
794.759277
 20
598.183594
 11
794.763550
 21
598.187866
  0
LINE
  8
LC-003-002-----0
 62
     1
  6
CONTINUOUS
 10
544.265686
 20
604.787903
 11
544.265686
 21
484.787842
  0
LINE
  8
LC-003-002-----0
 62
     1
  6
CONTINUOUS
 10
564.265686
 20
464.787872
 11
684.265686
 21
464.787872
  0
LINE
  8
LC-003-002-----0
 62
     1
  6
CONTINUOUS
 10
564.265686
 20
624.787903
 11
684.265686
 21
624.787903
  0
LINE
  8
LC-003-002-----0
 62
     1
  6
CONTINUOUS
 10
704.265686
 20
604.787903
 11
704.265686
 21
484.787842
  0
LINE
  8
LC-002-021-SLN-3
 62
     2
  6
CENTER
 10
624.265686
 20
459.787872
 11
624.265686
 21
629.787903
  0
LINE
  8
LC-002-021-SLN-3
 62
     2
  6
CENTER
 10
539.265686
 20
544.787903
 11
709.265686
 21
544.787903
  0
LINE
  8
LC-002-021-SLN-3
 62
     2
  6
CENTER
 10
552.265686
 20
604.787903
 11
576.265686
 21
604.787903
  0
LINE
  8
LC-002-021-SLN-3
 62
     2
  6
CENTER
 10
564.265686
 20
592.787903
 11
564.265686
 21
616.787903
  0
CIRCLE
  8
LC-003-002-----0
 62
     1
  6
CONTINUOUS
 10
564.265686
 20
604.787903
 40
7.000000
  0
ARC
  8
LC-003-002-----0
 62
     1
  6
CONTINUOUS
 10
564.265686
 20
604.787903
 40
20.000000
 50
90.000003
 51
180.000009
  0
ARC
  8
LC-003-002-----0
 62
     1
  6
CONTINUOUS
 10
684.265686
 20
604.787903
 40
20.000000
 50
0.000000
 51
90.000003
  0
LINE
  8
LC-002-021-SLN-3
 62
     2
  6
CENTER
 10
696.265686
 20
604.787903
 11
672.265686
 21
604.787903
  0
LINE
  8
LC-002-021-SLN-3
 62
     2
  6
CENTER
 10
684.265686
 20
592.787903
 11
684.265686
 21
616.787903
  0
CIRCLE
  8
LC-003-002-----0
 62
     1
  6
CONTINUOUS
 10
684.265686
 20
604.787903
 40
7.000000
  0
LINE
  8
LC-002-021-SLN-3
 62
     2
  6
CENTER
 10
552.265686
 20
484.787872
 11
576.265686
 21
484.787872
  0
LINE
  8
LC-002-021-SLN-3
 62
     2
  6
CENTER
 10
564.265686
 20
496.787872
 11
564.265686
 21
472.787872
  0
CIRCLE
  8
LC-003-002-----0
 62
     1
  6
CONTINUOUS
 10
564.265686
 20
484.787872
 40
7.000000
  0
ARC
  8
LC-003-002-----0
 62
     1
  6
CONTINUOUS
 10
564.265686
 20
484.787872
 40
20.000000
 50
180.000009
 51
269.999997
  0
ARC
  8
LC-003-002-----0
 62
     1
  6
CONTINUOUS
 10
684.265686
 20
484.787872
 40
20.000000
 50
269.999997
 51
0.000000
  0
LINE
  8
LC-002-021-SLN-3
 62
     2
  6
CENTER
 10
696.265686
 20
484.787872
 11
672.265686
 21
484.787872
  0
LINE
  8
LC-002-021-SLN-3
 62
     2
  6
CENTER
 10
684.265686
 20
496.787872
 11
684.265686
 21
472.787872
  0
CIRCLE
  8
LC-003-002-----0
 62
     1
  6
CONTINUOUS
 10
684.265686
 20
484.787872
 40
7.000000
  0
CIRCLE
  8
LC-003-002-----0
 62
     1
  6
CONTINUOUS
 10
624.265686
 20
544.787903
 40
30.000000
  0
LINE
  8
LC-003-002-----0
 62
     1
  6
CONTINUOUS
 10
794.759277
 20
464.787872
 11
816.759277
 21
464.787872
  0
LINE
  8
LC-003-002-----0
 62
     1
  6
CONTINUOUS
 10
794.759277
 20
624.787903
 11
816.759277
 21
624.787903
  0
LINE
  8
LC-003-002-----0
 62
     1
  6
CONTINUOUS
 10
816.759277
 20
624.787903
 11
816.759277
 21
607.787903
  0
LINE
  8
LC-002-021-SLN-3
 62
     2
  6
CENTER
 10
756.058533
 20
544.787903
 11
931.427185
 21
544.787903
  0
LINE
  8
LC-003-002-----0
 62
     1
  6
CONTINUOUS
 10
820.759277
 20
603.787903
 11
893.759277
 21
603.787903
  0
LINE
  8
LC-003-002-----0
 62
     1
  6
CONTINUOUS
 10
820.759277
 20
485.787872
 11
893.759277
 21
485.787872
  0
LINE
  8
LC-003-002-----0
 62
     1
  6
CONTINUOUS
 10
784.259277
 20
589.787903
 11
794.759277
 21
589.787903
  0
ARC
  8
LC-003-002-----0
 62
     1
  6
CONTINUOUS
 10
820.759277
 20
607.787903
 40
4.000000
 50
180.000009
 51
269.999997
  0
LINE
  8
LC-003-002-----0
 62
     1
  6
CONTINUOUS
 10
816.759277
 20
544.787903
 11
816.759277
 21
464.787842
  0
ARC
  8
LC-003-002-----0
 62
     1
  6
CONTINUOUS
 10
820.759277
 20
481.787872
 40
4.000000
 50
90.000003
 51
180.000009
  0
LINE
  8
LC-002-021-SLN-3
 62
     2
  6
CENTER
 10
789.759277
 20
484.787872
 11
821.759277
 21
484.787872
  0
LINE
  8
LC-001-150-----0
 62
     2
  6
DASHED
 10
794.759277
 20
491.787872
 11
816.759277
 21
491.787872
  0
LINE
  8
LC-001-150-----0
 62
     2
  6
DASHED
 10
794.759277
 20
477.787872
 11
816.759277
 21
477.787872
  0
LINE
  8
LC-003-002-----0
 62
     1
  6
CONTINUOUS
 10
893.759277
 20
491.387878
 11
896.909302
 21
491.387878
  0
LINE
  8
LC-003-002-----0
 62
     1
  6
CONTINUOUS
 10
906.759277
 20
587.287903
 11
906.759277
 21
502.287842
  0
LINE
  8
LC-003-002-----0
 62
     1
  6
CONTINUOUS
 10
781.759277
 20
587.287903
 11
781.759277
 21
502.287842
  0
LINE
  8
LC-003-002-----0
 62
     1
  6
CONTINUOUS
 10
794.759277
 20
544.787903
 11
794.759277
 21
464.787842
  0
LINE
  8
LC-003-002-----0
 62
     1
  6
CONTINUOUS
 10
893.759277
 20
544.787903
 11
893.759277
 21
485.787842
  0
LINE
  8
LC-003-002-----0
 62
     1
  6
CONTINUOUS
 10
784.259277
 20
499.787872
 11
794.759277
 21
499.787872
  0
LINE
  8
LC-003-002-----0
 62
     1
  6
CONTINUOUS
 10
896.909302
 20
499.787872
 11
904.259277
 21
499.787872
  0
ARC
  8
LC-003-002-----0
 62
     1
  6
CONTINUOUS
 10
784.259277
 20
587.287903
 40
2.500000
 50
90.000003
 51
180.000009
  0
ARC
  8
LC-003-002-----0
 62
     1
  6
CONTINUOUS
 10
784.259277
 20
502.287872
 40
2.500000
 50
180.000009
 51
269.999997
  0
ARC
  8
LC-003-002-----0
 62
     1
  6
CONTINUOUS
 10
904.259277
 20
502.287872
 40
2.500000
 50
269.999997
 51
0.000000
  0
ARC
  8
LC-003-002-----0
 62
     1
  6
CONTINUOUS
 10
904.259277
 20
587.287903
 40
2.500000
 50
0.000000
 51
90.000003
  0
ARC
  8
LC-003-002-----0
 62
     1
  6
CONTINUOUS
 10
624.265686
 20
547.412903
 40
50.775002
 50
294.896153
 51
245.103842
  0
LINE
  8
LC-003-002-----0
 62
     1
  6
CONTINUOUS
 10
797.909302
 20
598.187866
 11
797.909302
 21
588.037903
  0
LINE
  8
LC-003-002-----0
 62
     1
  6
CONTINUOUS
 10
794.759277
 20
588.037903
 11
797.909302
 21
588.037903
  0
LINE
  8
LC-003-002-----0
 62
     1
  6
CONTINUOUS
 10
797.909302
 20
589.787903
 11
893.759277
 21
589.787903
  0
LINE
  8
LC-003-002-----0
 62
     1
  6
CONTINUOUS
 10
893.759277
 20
588.037903
 11
896.909302
 21
588.037903
  0
LINE
  8
LC-003-002-----0
 62
     1
  6
CONTINUOUS
 10
896.909302
 20
598.187866
 11
896.909302
 21
588.037903
  0
LINE
  8
LC-003-002-----0
 62
     1
  6
CONTINUOUS
 10
896.909302
 20
589.787903
 11
904.259277
 21
589.787903
  0
LINE
  8
LC-003-002-----0
 62
     1
  6
CONTINUOUS
 10
794.759277
 20
598.187866
 11
797.909302
 21
598.187866
  0
LINE
  8
LC-003-002-----0
 62
     1
  6
CONTINUOUS
 10
893.759277
 20
598.187866
 11
896.909302
 21
598.187866
  0
LINE
  8
LC-003-002-----0
 62
     1
  6
CONTINUOUS
 10
893.759277
 20
603.787903
 11
893.759277
 21
598.187866
  0
LINE
  8
LC-003-002-----0
 62
     1
  6
CONTINUOUS
 10
893.759277
 20
598.187866
 11
893.759277
 21
588.037903
  0
CIRCLE
  8
LC-003-002-----0
 62
     1
  6
CONTINUOUS
 10
624.265686
 20
544.787903
 40
45.000000
  0
LINE
  8
LC-003-002-----0
 62
     1
  6
CONTINUOUS
 10
794.759277
 20
624.787903
 11
794.759277
 21
598.187866
  0
LINE
  8
LC-003-002-----0
 62
     1
  6
CONTINUOUS
 10
794.759277
 20
598.187866
 11
794.759277
 21
588.037903
  0
LINE
  8
LC-003-002-----0
 62
     1
  6
CONTINUOUS
 10
602.890686
 20
501.356293
 11
605.261353
 21
493.921021
  0
LINE
  8
LC-003-002-----0
 62
     1
  6
CONTINUOUS
 10
611.113281
 20
488.811768
 11
621.640686
 21
486.968262
  0
LINE
  8
LC-003-002-----0
 62
     1
  6
CONTINUOUS
 10
626.890686
 20
486.968262
 11
637.418091
 21
488.811768
  0
LINE
  8
LC-003-002-----0
 62
     1
  6
CONTINUOUS
 10
645.640686
 20
501.356293
 11
643.270020
 21
493.921021
  0
CIRCLE
  8
LC-003-002-----0
 62
     1
  6
CONTINUOUS
 10
632.890686
 20
494.468262
 40
3.000000
  0
CIRCLE
  8
LC-003-002-----0
 62
     1
  6
CONTINUOUS
 10
624.265686
 20
544.787903
 40
60.000000
  0
CIRCLE
  8
LC-003-002-----0
 62
     1
  6
CONTINUOUS
 10
615.640686
 20
494.468262
 40
3.000000
  0
ARC
  8
LC-003-002-----0
 62
     1
  6
CONTINUOUS
 10
612.406921
 20
496.199341
 40
7.500000
 50
197.684461
 51
260.067441
  0
ARC
  8
LC-003-002-----0
 62
     1
  6
CONTINUOUS
 10
636.124451
 20
496.199341
 40
7.500000
 50
279.932561
 51
342.315539
  0
LINE
  8
LC-003-002-----0
 62
     1
  6
CONTINUOUS
 10
626.890686
 20
499.864502
 11
626.890686
 21
486.968262
  0
LINE
  8
LC-003-002-----0
 62
     1
  6
CONTINUOUS
 10
621.640686
 20
499.864502
 11
621.640686
 21
486.968262
  0
LINE
  8
LC-003-002-----0
 62
     1
  6
CONTINUOUS
 10
794.759277
 20
604.787903
 11
797.909302
 21
604.787903
  0
LINE
  8
LC-003-002-----0
 62
     1
  6
CONTINUOUS
 10
797.909302
 20
598.187866
 11
797.909302
 21
604.787903
  0
LINE
  8
LC-003-002-----0
 62
     1
  6
CONTINUOUS
 10
781.759277
 20
574.787903
 11
906.759277
 21
574.787903
  0
LINE
  8
LC-003-002-----0
 62
     1
  6
CONTINUOUS
 10
896.759277
 20
580.687866
 11
901.759277
 21
580.687866
  0
CIRCLE
  8
LC-003-002-----0
 62
     1
  6
CONTINUOUS
 10
844.259277
 20
578.287903
 40
3.500000
  0
CIRCLE
  8
LC-003-002-----0
 62
     1
  6
CONTINUOUS
 10
851.259277
 20
578.287903
 40
3.500000
  0
CIRCLE
  8
LC-003-002-----0
 62
     1
  6
CONTINUOUS
 10
858.259277
 20
578.287903
 40
3.500000
  0
CIRCLE
  8
LC-003-002-----0
 62
     1
  6
CONTINUOUS
 10
865.259277
 20
578.287903
 40
3.500000
  0
CIRCLE
  8
LC-003-002-----0
 62
     1
  6
CONTINUOUS
 10
872.259277
 20
578.287903
 40
3.500000
  0
CIRCLE
  8
LC-003-002-----0
 62
     1
  6
CONTINUOUS
 10
879.259277
 20
578.287903
 40
3.500000
  0
CIRCLE
  8
LC-003-002-----0
 62
     1
  6
CONTINUOUS
 10
893.259277
 20
580.687866
 40
3.500000
  0
CIRCLE
  8
LC-003-002-----0
 62
     1
  6
CONTINUOUS
 10
886.259277
 20
579.487854
 40
3.500000
  0
LINE
  8
LC-003-002-----0
 62
     1
  6
CONTINUOUS
 10
901.759277
 20
580.687866
 11
901.759277
 21
574.787903
  0
LINE
  8
LC-003-002-----0
 62
     1
  6
CONTINUOUS
 10
791.759277
 20
580.687866
 11
786.759277
 21
580.687866
  0
CIRCLE
  8
LC-003-002-----0
 62
     1
  6
CONTINUOUS
 10
837.259277
 20
578.287903
 40
3.500000
  0
CIRCLE
  8
LC-003-002-----0
 62
     1
  6
CONTINUOUS
 10
830.259277
 20
578.287903
 40
3.500000
  0
CIRCLE
  8
LC-003-002-----0
 62
     1
  6
CONTINUOUS
 10
823.259277
 20
578.287903
 40
3.500000
  0
CIRCLE
  8
LC-003-002-----0
 62
     1
  6
CONTINUOUS
 10
816.259277
 20
578.287903
 40
3.500000
  0
CIRCLE
  8
LC-003-002-----0
 62
     1
  6
CONTINUOUS
 10
809.259277
 20
578.287903
 40
3.500000
  0
CIRCLE
  8
LC-003-002-----0
 62
     1
  6
CONTINUOUS
 10
802.259277
 20
579.487854
 40
3.500000
  0
CIRCLE
  8
LC-003-002-----0
 62
     1
  6
CONTINUOUS
 10
795.259277
 20
580.687866
 40
3.500000
  0
LINE
  8
LC-003-002-----0
 62
     1
  6
CONTINUOUS
 10
786.759277
 20
580.687866
 11
786.759277
 21
574.787903
  0
LINE
  8
LC-003-002-----0
 62
     1
  6
CONTINUOUS
 10
795.850647
 20
584.137573
 11
809.850647
 21
581.737549
  0
LINE
  8
LC-003-002-----0
 62
     1
  6
CONTINUOUS
 10
809.850647
 20
581.737549
 11
878.667908
 21
581.737549
  0
LINE
  8
LC-003-002-----0
 62
     1
  6
CONTINUOUS
 10
892.667908
 20
584.137573
 11
878.667908
 21
581.737549
  0
LINE
  8
LC-003-002-----0
 62
     1
  6
CONTINUOUS
 10
893.259277
 20
577.187866
 11
879.259277
 21
574.787903
  0
LINE
  8
LC-003-002-----0
 62
     1
  6
CONTINUOUS
 10
795.259277
 20
577.187866
 11
809.259277
 21
574.787903
  0
LINE
  8
LC-003-002-----0
 62
     1
  6
CONTINUOUS
 10
896.909302
 20
491.387878
 11
896.909302
 21
544.787903
  0
LINE
  8
LC-003-002-----0
 62
     1
  6
CONTINUOUS
 10
781.759277
 20
574.787903
 11
761.482239
 21
574.787903
  0
LINE
  8
LC-003-002-----0
 62
     1
  6
CONTINUOUS
 10
906.759277
 20
574.787903
 11
925.572632
 21
574.787903
  0
LINE
  8
LC-003-002-----0
 62
     1
  6
CONTINUOUS
 10
781.759277
 20
514.787903
 11
761.366272
 21
514.787903
  0
LINE
  8
LC-003-002-----0
 62
     1
  6
CONTINUOUS
 10
906.759277
 20
514.787903
 11
927.417114
 21
514.787903
  0
LINE
  8
LC-008-003-----0
 62
     2
  6
CONTINUOUS
 10
761.366272
 20
514.787903
 11
760.277588
 21
526.142212
  0
LINE
  8
LC-008-003-----0
 62
     2
  6
CONTINUOUS
 10
760.277588
 20
526.142212
 11
761.439148
 21
539.278198
  0
LINE
  8
LC-008-003-----0
 62
     2
  6
CONTINUOUS
 10
761.439148
 20
539.278198
 11
759.987183
 21
560.295837
  0
LINE
  8
LC-008-003-----0
 62
     2
  6
CONTINUOUS
 10
759.987183
 20
560.295837
 11
761.482239
 21
574.787903
  0
LINE
  8
LC-008-003-----0
 62
     2
  6
CONTINUOUS
 10
927.417114
 20
514.787903
 11
926.605042
 21
524.828613
  0
LINE
  8
LC-008-003-----0
 62
     2
  6
CONTINUOUS
 10
926.605042
 20
524.828613
 11
927.185852
 21
539.497131
  0
LINE
  8
LC-008-003-----0
 62
     2
  6
CONTINUOUS
 10
927.185852
 20
539.497131
 11
924.862732
 21
555.698242
  0
LINE
  8
LC-008-003-----0
 62
     2
  6
CONTINUOUS
 10
924.862732
 20
555.698242
 11
925.572632
 21
574.787903
  0
ENDSEC
  0
EOF
