  0
SECTION
  2
HEADER
  9
$LIMMIN
 10
501.914795
 20
114.730934
  9
$LIMMAX
 10
966.213379
 20
324.730927
  9
$EXTMIN
 10
501.914795
 20
114.730934
  9
$EXTMAX
 10
966.213379
 20
324.730927
  0
ENDSEC
  0
SECTION
  2
TABLES
  0
TABLE
  2
LTYPE
 70
     3
  0
LTYPE
  2
CONTINUOUS
 70
    64
  3
Ausgezogene Linie
 72
    65
 73
     0
 40
0.0
  0
LTYPE
  2
DASHED
 70
    64
  3
__ __ __ __ __ __ __ __ __ __ __ __ __ __ __
 72
    65
 73
     2
 40
0.75
 49
0.5
 49
-0.25
  0
LTYPE
  2
CENTER
 70
    64
  3
____ _ ____ _ ____ _ ____ _ ____ _ ____ _ ____
 72
    65
 73
     4
 40
2.0
 49
1.25
 49
-0.25
 49
0.25
 49
-0.25
  0
ENDTAB
  0
TABLE
  2
LAYER
 70
     5
  0
LAYER
  2
LC-INFO-1-1-MM-A0-0
 70
    64
 62
     7
  6
CONTINUOUS
  0
LAYER
  2
LC-003-002-----0
 70
    64
 62
     7
  6
CONTINUOUS
  0
LAYER
  2
LC-002-021-SLN-3
 70
    64
 62
     7
  6
CONTINUOUS
  0
LAYER
  2
LC-001-150-----0
 70
    64
 62
     7
  6
CONTINUOUS
  0
LAYER
  2
LC-008-003-----0
 70
    64
 62
     7
  6
CONTINUOUS
  0
ENDTAB
  0
TABLE
  2
STYLE
 70
     1
  0
STYLE
  2
TXT8
 70
    64
 40
0.0
 41
1.0
 50
0.0
 71
     0
 42
3.500000
  3
TXT8
  4

  0
ENDTAB
  0
ENDSEC
  0
SECTION
  2
BLOCKS
  0
ENDSEC
  0
SECTION
  2
ENTITIES
  0
LINE
  8
LC-008-003-----0
 62
     2
  6
CONTINUOUS
 10
919.264404
 20
296.959290
 11
918.492737
 21
297.730927
  0
LINE
  8
LC-008-003-----0
 62
     2
  6
CONTINUOUS
 10
919.264404
 20
289.888214
 11
911.421631
 21
297.730927
  0
LINE
  8
LC-008-003-----0
 62
     2
  6
CONTINUOUS
 10
919.264404
 20
282.817139
 11
904.350586
 21
297.730927
  0
LINE
  8
LC-008-003-----0
 62
     2
  6
CONTINUOUS
 10
915.279541
 20
279.730927
 11
897.279541
 21
297.730927
  0
LINE
  8
LC-008-003-----0
 62
     2
  6
CONTINUOUS
 10
908.208435
 20
279.730927
 11
890.208435
 21
297.730927
  0
LINE
  8
LC-008-003-----0
 62
     2
  6
CONTINUOUS
 10
901.137390
 20
279.730927
 11
883.137390
 21
297.730927
  0
LINE
  8
LC-008-003-----0
 62
     2
  6
CONTINUOUS
 10
894.066345
 20
279.730927
 11
876.066345
 21
297.730927
  0
LINE
  8
LC-008-003-----0
 62
     2
  6
CONTINUOUS
 10
886.995239
 20
279.730927
 11
868.995239
 21
297.730927
  0
LINE
  8
LC-008-003-----0
 62
     2
  6
CONTINUOUS
 10
879.924194
 20
279.730927
 11
861.924194
 21
297.730927
  0
LINE
  8
LC-008-003-----0
 62
     2
  6
CONTINUOUS
 10
872.853088
 20
279.730927
 11
854.853088
 21
297.730927
  0
LINE
  8
LC-008-003-----0
 62
     2
  6
CONTINUOUS
 10
865.782043
 20
279.730927
 11
847.782043
 21
297.730927
  0
LINE
  8
LC-008-003-----0
 62
     2
  6
CONTINUOUS
 10
858.710999
 20
279.730927
 11
840.710999
 21
297.730927
  0
LINE
  8
LC-008-003-----0
 62
     2
  6
CONTINUOUS
 10
851.639893
 20
279.730927
 11
833.639893
 21
297.730927
  0
LINE
  8
LC-008-003-----0
 62
     2
  6
CONTINUOUS
 10
815.264404
 20
316.106476
 11
811.639893
 21
319.730927
  0
LINE
  8
LC-008-003-----0
 62
     2
  6
CONTINUOUS
 10
844.568848
 20
279.730927
 11
826.568848
 21
297.730927
  0
LINE
  8
LC-008-003-----0
 62
     2
  6
CONTINUOUS
 10
815.264404
 20
309.035400
 11
804.568848
 21
319.730927
  0
LINE
  8
LC-008-003-----0
 62
     2
  6
CONTINUOUS
 10
837.497803
 20
279.730927
 11
819.089844
 21
298.138855
  0
LINE
  8
LC-008-003-----0
 62
     2
  6
CONTINUOUS
 10
815.672302
 20
301.556427
 11
797.497803
 21
319.730927
  0
LINE
  8
LC-008-003-----0
 62
     2
  6
CONTINUOUS
 10
830.426697
 20
279.730927
 11
790.426697
 21
319.730927
  0
LINE
  8
LC-008-003-----0
 62
     2
  6
CONTINUOUS
 10
823.355652
 20
279.730927
 11
789.264404
 21
313.822205
  0
LINE
  8
LC-008-003-----0
 62
     2
  6
CONTINUOUS
 10
816.284546
 20
279.730927
 11
789.264404
 21
306.751129
  0
LINE
  8
LC-008-003-----0
 62
     2
  6
CONTINUOUS
 10
809.213501
 20
279.730927
 11
792.914368
 21
296.030060
  0
LINE
  8
LC-008-003-----0
 62
     2
  6
CONTINUOUS
 10
802.142456
 20
279.730927
 11
792.914368
 21
288.958984
  0
LINE
  8
LC-008-003-----0
 62
     2
  6
CONTINUOUS
 10
795.071350
 20
279.730927
 11
792.914368
 21
281.887909
  0
LINE
  8
LC-008-003-----0
 62
     2
  6
CONTINUOUS
 10
938.553467
 20
259.730927
 11
938.589417
 21
259.766876
  0
LINE
  8
LC-008-003-----0
 62
     2
  6
CONTINUOUS
 10
934.310791
 20
259.730927
 11
938.589417
 21
264.009521
  0
LINE
  8
LC-008-003-----0
 62
     2
  6
CONTINUOUS
 10
931.589417
 20
261.252167
 11
938.589417
 21
268.252167
  0
LINE
  8
LC-008-003-----0
 62
     2
  6
CONTINUOUS
 10
931.589417
 20
265.494812
 11
938.589417
 21
272.494812
  0
LINE
  8
LC-008-003-----0
 62
     2
  6
CONTINUOUS
 10
928.582886
 20
266.730927
 11
938.589355
 21
276.737427
  0
LINE
  8
LC-008-003-----0
 62
     2
  6
CONTINUOUS
 10
924.340271
 20
266.730927
 11
936.992126
 21
279.382813
  0
LINE
  8
LC-008-003-----0
 62
     2
  6
CONTINUOUS
 10
922.921936
 20
269.555267
 11
933.097595
 21
279.730927
  0
LINE
  8
LC-008-003-----0
 62
     2
  6
CONTINUOUS
 10
919.847656
 20
270.723633
 11
928.854980
 21
279.730927
  0
LINE
  8
LC-008-003-----0
 62
     2
  6
CONTINUOUS
 10
914.579163
 20
269.697754
 11
920.612305
 21
275.730927
  0
LINE
  8
LC-008-003-----0
 62
     2
  6
CONTINUOUS
 10
922.914368
 20
278.032990
 11
924.612305
 21
279.730927
  0
LINE
  8
LC-008-003-----0
 62
     2
  6
CONTINUOUS
 10
909.357422
 20
268.718689
 11
919.264404
 21
278.625641
  0
LINE
  8
LC-008-003-----0
 62
     2
  6
CONTINUOUS
 10
904.135742
 20
267.739624
 11
916.127014
 21
279.730927
  0
LINE
  8
LC-008-003-----0
 62
     2
  6
CONTINUOUS
 10
899.612671
 20
267.459229
 11
911.884399
 21
279.730927
  0
LINE
  8
LC-008-003-----0
 62
     2
  6
CONTINUOUS
 10
895.613342
 20
267.702515
 11
907.641785
 21
279.730927
  0
LINE
  8
LC-008-003-----0
 62
     2
  6
CONTINUOUS
 10
891.127441
 20
267.459229
 11
903.399109
 21
279.730927
  0
LINE
  8
LC-008-003-----0
 62
     2
  6
CONTINUOUS
 10
887.007324
 20
267.581818
 11
899.156494
 21
279.730927
  0
LINE
  8
LC-008-003-----0
 62
     2
  6
CONTINUOUS
 10
882.642151
 20
267.459229
 11
894.913818
 21
279.730927
  0
LINE
  8
LC-008-003-----0
 62
     2
  6
CONTINUOUS
 10
878.399475
 20
267.459229
 11
890.671204
 21
279.730927
  0
LINE
  8
LC-008-003-----0
 62
     2
  6
CONTINUOUS
 10
874.156860
 20
267.459229
 11
886.428528
 21
279.730927
  0
LINE
  8
LC-008-003-----0
 62
     2
  6
CONTINUOUS
 10
869.914246
 20
267.459229
 11
882.185913
 21
279.730927
  0
LINE
  8
LC-008-003-----0
 62
     2
  6
CONTINUOUS
 10
865.671570
 20
267.459229
 11
877.943298
 21
279.730927
  0
LINE
  8
LC-008-003-----0
 62
     2
  6
CONTINUOUS
 10
861.428955
 20
267.459229
 11
873.700623
 21
279.730927
  0
LINE
  8
LC-008-003-----0
 62
     2
  6
CONTINUOUS
 10
857.277466
 20
267.550415
 11
869.458008
 21
279.730927
  0
LINE
  8
LC-008-003-----0
 62
     2
  6
CONTINUOUS
 10
852.943665
 20
267.459229
 11
865.215332
 21
279.730927
  0
LINE
  8
LC-008-003-----0
 62
     2
  6
CONTINUOUS
 10
848.891479
 20
267.649689
 11
860.972717
 21
279.730927
  0
LINE
  8
LC-008-003-----0
 62
     2
  6
CONTINUOUS
 10
844.458374
 20
267.459229
 11
856.730042
 21
279.730927
  0
LINE
  8
LC-008-003-----0
 62
     2
  6
CONTINUOUS
 10
840.469360
 20
267.712860
 11
852.487427
 21
279.730927
  0
LINE
  8
LC-008-003-----0
 62
     2
  6
CONTINUOUS
 10
835.973083
 20
267.459229
 11
848.244812
 21
279.730927
  0
LINE
  8
LC-008-003-----0
 62
     2
  6
CONTINUOUS
 10
832.001160
 20
267.729950
 11
844.002136
 21
279.730927
  0
LINE
  8
LC-008-003-----0
 62
     2
  6
CONTINUOUS
 10
827.487793
 20
267.459229
 11
839.759521
 21
279.730927
  0
LINE
  8
LC-008-003-----0
 62
     2
  6
CONTINUOUS
 10
823.468384
 20
267.682434
 11
835.516846
 21
279.730927
  0
LINE
  8
LC-008-003-----0
 62
     2
  6
CONTINUOUS
 10
819.002502
 20
267.459229
 11
831.274231
 21
279.730927
  0
LINE
  8
LC-008-003-----0
 62
     2
  6
CONTINUOUS
 10
814.827209
 20
267.526581
 11
827.031555
 21
279.730927
  0
LINE
  8
LC-008-003-----0
 62
     2
  6
CONTINUOUS
 10
810.517273
 20
267.459229
 11
822.788940
 21
279.730927
  0
LINE
  8
LC-008-003-----0
 62
     2
  6
CONTINUOUS
 10
806.789978
 20
267.974579
 11
818.546326
 21
279.730927
  0
LINE
  8
LC-008-003-----0
 62
     2
  6
CONTINUOUS
 10
803.217224
 20
268.644470
 11
814.303650
 21
279.730927
  0
LINE
  8
LC-008-003-----0
 62
     2
  6
CONTINUOUS
 10
799.644470
 20
269.314362
 11
810.061035
 21
279.730927
  0
LINE
  8
LC-008-003-----0
 62
     2
  6
CONTINUOUS
 10
796.071716
 20
269.984253
 11
805.818359
 21
279.730927
  0
LINE
  8
LC-008-003-----0
 62
     2
  6
CONTINUOUS
 10
792.549194
 20
270.704407
 11
801.575745
 21
279.730927
  0
LINE
  8
LC-008-003-----0
 62
     2
  6
CONTINUOUS
 10
777.333130
 20
259.730927
 11
780.589417
 21
262.987213
  0
LINE
  8
LC-008-003-----0
 62
     2
  6
CONTINUOUS
 10
784.333130
 20
266.730927
 11
797.333130
 21
279.730927
  0
LINE
  8
LC-008-003-----0
 62
     2
  6
CONTINUOUS
 10
773.589417
 20
260.229858
 11
789.264404
 21
275.904877
  0
LINE
  8
LC-008-003-----0
 62
     2
  6
CONTINUOUS
 10
792.914368
 20
279.554871
 11
793.090454
 21
279.730927
  0
LINE
  8
LC-008-003-----0
 62
     2
  6
CONTINUOUS
 10
773.589417
 20
264.472504
 11
788.847839
 21
279.730927
  0
LINE
  8
LC-008-003-----0
 62
     2
  6
CONTINUOUS
 10
773.589417
 20
268.715149
 11
784.605164
 21
279.730927
  0
LINE
  8
LC-008-003-----0
 62
     2
  6
CONTINUOUS
 10
773.589417
 20
272.957794
 11
780.362549
 21
279.730927
  0
LINE
  8
LC-008-003-----0
 62
     2
  6
CONTINUOUS
 10
773.633728
 20
277.244751
 11
776.075562
 21
279.686615
  0
LINE
  8
LC-008-003-----0
 62
     2
  6
CONTINUOUS
 10
922.026550
 20
275.730927
 11
922.914368
 21
276.618805
  0
LINE
  8
LC-008-003-----0
 62
     2
  6
CONTINUOUS
 10
920.612305
 20
275.730927
 11
922.914368
 21
278.032990
  0
LINE
  8
LC-008-003-----0
 62
     2
  6
CONTINUOUS
 10
919.264404
 20
275.797211
 11
922.914368
 21
279.447205
  0
LINE
  8
LC-008-003-----0
 62
     2
  6
CONTINUOUS
 10
919.264404
 20
277.211426
 11
922.914368
 21
280.861420
  0
LINE
  8
LC-008-003-----0
 62
     2
  6
CONTINUOUS
 10
919.264404
 20
278.625641
 11
922.914368
 21
282.275635
  0
LINE
  8
LC-008-003-----0
 62
     2
  6
CONTINUOUS
 10
919.264404
 20
280.039856
 11
922.914368
 21
283.689850
  0
LINE
  8
LC-008-003-----0
 62
     2
  6
CONTINUOUS
 10
919.264404
 20
281.454071
 11
922.914368
 21
285.104065
  0
LINE
  8
LC-008-003-----0
 62
     2
  6
CONTINUOUS
 10
919.264404
 20
282.868286
 11
922.914368
 21
286.518280
  0
LINE
  8
LC-008-003-----0
 62
     2
  6
CONTINUOUS
 10
919.264404
 20
284.282501
 11
921.962830
 21
286.980927
  0
LINE
  8
LC-008-003-----0
 62
     2
  6
CONTINUOUS
 10
919.264404
 20
285.696716
 11
920.548584
 21
286.980927
  0
LINE
  8
LC-008-003-----0
 62
     2
  6
CONTINUOUS
 10
791.918884
 20
275.730927
 11
792.914368
 21
276.726440
  0
LINE
  8
LC-008-003-----0
 62
     2
  6
CONTINUOUS
 10
790.504700
 20
275.730927
 11
792.914368
 21
278.140656
  0
LINE
  8
LC-008-003-----0
 62
     2
  6
CONTINUOUS
 10
789.264404
 20
275.904877
 11
792.914368
 21
279.554871
  0
LINE
  8
LC-008-003-----0
 62
     2
  6
CONTINUOUS
 10
789.264404
 20
277.319092
 11
792.914368
 21
280.969086
  0
LINE
  8
LC-008-003-----0
 62
     2
  6
CONTINUOUS
 10
789.264404
 20
278.733307
 11
792.914368
 21
282.383301
  0
LINE
  8
LC-008-003-----0
 62
     2
  6
CONTINUOUS
 10
789.264404
 20
280.147491
 11
792.914368
 21
283.797516
  0
LINE
  8
LC-008-003-----0
 62
     2
  6
CONTINUOUS
 10
789.264404
 20
281.561707
 11
792.914368
 21
285.211731
  0
LINE
  8
LC-008-003-----0
 62
     2
  6
CONTINUOUS
 10
789.264404
 20
282.975922
 11
792.914368
 21
286.625946
  0
LINE
  8
LC-008-003-----0
 62
     2
  6
CONTINUOUS
 10
789.264404
 20
284.390137
 11
791.855164
 21
286.980927
  0
LINE
  8
LC-008-003-----0
 62
     2
  6
CONTINUOUS
 10
789.264404
 20
285.804352
 11
790.440979
 21
286.980927
  0
LINE
  8
LC-003-002-----0
 62
     1
  6
CONTINUOUS
 10
506.914795
 20
297.230927
 11
506.914795
 21
142.230957
  0
LINE
  8
LC-003-002-----0
 62
     1
  6
CONTINUOUS
 10
529.414795
 20
119.730934
 11
684.414795
 21
119.730934
  0
LINE
  8
LC-003-002-----0
 62
     1
  6
CONTINUOUS
 10
529.414795
 20
319.730927
 11
684.414795
 21
319.730927
  0
LINE
  8
LC-003-002-----0
 62
     1
  6
CONTINUOUS
 10
706.914795
 20
297.230927
 11
706.914795
 21
142.230957
  0
LINE
  8
LC-002-021-SLN-3
 62
     2
  6
CENTER
 10
606.914795
 20
114.730934
 11
606.914795
 21
324.730927
  0
LINE
  8
LC-002-021-SLN-3
 62
     2
  6
CENTER
 10
501.914795
 20
219.730942
 11
711.914795
 21
219.730942
  0
LINE
  8
LC-002-021-SLN-3
 62
     2
  6
CENTER
 10
519.103821
 20
297.230927
 11
541.414795
 21
297.230927
  0
LINE
  8
LC-002-021-SLN-3
 62
     2
  6
CENTER
 10
529.414795
 20
285.567780
 11
529.414795
 21
309.230927
  0
CIRCLE
  8
LC-003-002-----0
 62
     1
  6
CONTINUOUS
 10
529.414795
 20
297.230927
 40
7.000000
  0
ARC
  8
LC-003-002-----0
 62
     1
  6
CONTINUOUS
 10
529.414795
 20
297.230927
 40
22.500000
 50
90.000003
 51
180.000009
  0
LINE
  8
LC-002-021-SLN-3
 62
     2
  6
CENTER
 10
694.725769
 20
297.230927
 11
672.414795
 21
297.230927
  0
LINE
  8
LC-002-021-SLN-3
 62
     2
  6
CENTER
 10
684.414795
 20
285.567780
 11
684.414795
 21
309.230927
  0
CIRCLE
  8
LC-003-002-----0
 62
     1
  6
CONTINUOUS
 10
684.414795
 20
297.230927
 40
7.000000
  0
ARC
  8
LC-003-002-----0
 62
     1
  6
CONTINUOUS
 10
684.414795
 20
297.230927
 40
22.500000
 50
0.000000
 51
90.000003
  0
LINE
  8
LC-002-021-SLN-3
 62
     2
  6
CENTER
 10
519.103821
 20
142.230942
 11
541.414795
 21
142.230942
  0
LINE
  8
LC-002-021-SLN-3
 62
     2
  6
CENTER
 10
529.414795
 20
153.894089
 11
529.414795
 21
130.230942
  0
CIRCLE
  8
LC-003-002-----0
 62
     1
  6
CONTINUOUS
 10
529.414795
 20
142.230942
 40
7.000000
  0
LINE
  8
LC-002-021-SLN-3
 62
     2
  6
CENTER
 10
694.725769
 20
142.230942
 11
672.414795
 21
142.230942
  0
LINE
  8
LC-002-021-SLN-3
 62
     2
  6
CENTER
 10
684.414795
 20
153.894089
 11
684.414795
 21
130.230942
  0
CIRCLE
  8
LC-003-002-----0
 62
     1
  6
CONTINUOUS
 10
684.414795
 20
142.230942
 40
7.000000
  0
ARC
  8
LC-003-002-----0
 62
     1
  6
CONTINUOUS
 10
684.414795
 20
142.230942
 40
22.500000
 50
269.999997
 51
0.000000
  0
ARC
  8
LC-003-002-----0
 62
     1
  6
CONTINUOUS
 10
529.414795
 20
142.230942
 40
22.500000
 50
180.000009
 51
269.999997
  0
CIRCLE
  8
LC-003-002-----0
 62
     1
  6
CONTINUOUS
 10
606.914795
 20
217.530930
 40
60.000000
  0
LINE
  8
LC-003-002-----0
 62
     1
  6
CONTINUOUS
 10
789.264404
 20
319.730927
 11
815.264404
 21
319.730927
  0
LINE
  8
LC-003-002-----0
 62
     1
  6
CONTINUOUS
 10
603.614807
 20
157.621750
 11
603.614807
 21
143.377823
  0
LINE
  8
LC-003-002-----0
 62
     1
  6
CONTINUOUS
 10
610.214783
 20
157.621750
 11
610.214783
 21
143.377823
  0
LINE
  8
LC-003-002-----0
 62
     1
  6
CONTINUOUS
 10
789.264404
 20
119.730934
 11
815.264404
 21
119.730934
  0
LINE
  8
LC-003-002-----0
 62
     1
  6
CONTINUOUS
 10
789.264404
 20
319.730927
 11
789.264404
 21
286.980927
  0
LINE
  8
LC-003-002-----0
 62
     1
  6
CONTINUOUS
 10
815.264404
 20
319.730927
 11
815.264404
 21
303.730927
  0
LINE
  8
LC-003-002-----0
 62
     1
  6
CONTINUOUS
 10
919.264404
 20
297.730927
 11
919.264404
 21
286.980927
  0
LINE
  8
LC-002-021-SLN-3
 62
     2
  6
CENTER
 10
749.577454
 20
219.730942
 11
966.213379
 21
219.730942
  0
LINE
  8
LC-003-002-----0
 62
     1
  6
CONTINUOUS
 10
821.264404
 20
297.730927
 11
919.264404
 21
297.730927
  0
LINE
  8
LC-003-002-----0
 62
     1
  6
CONTINUOUS
 10
821.264404
 20
141.730942
 11
919.264404
 21
141.730942
  0
LINE
  8
LC-003-002-----0
 62
     1
  6
CONTINUOUS
 10
815.264404
 20
219.730942
 11
815.264404
 21
119.730927
  0
ARC
  8
LC-003-002-----0
 62
     1
  6
CONTINUOUS
 10
821.264404
 20
303.730927
 40
6.000000
 50
180.000009
 51
269.999997
  0
ARC
  8
LC-003-002-----0
 62
     1
  6
CONTINUOUS
 10
821.264404
 20
135.730942
 40
6.000000
 50
90.000003
 51
180.000009
  0
LINE
  8
LC-003-002-----0
 62
     1
  6
CONTINUOUS
 10
776.589417
 20
279.730927
 11
789.264404
 21
279.730927
  0
LINE
  8
LC-003-002-----0
 62
     1
  6
CONTINUOUS
 10
789.264404
 20
286.980927
 11
792.914368
 21
286.980927
  0
LINE
  8
LC-003-002-----0
 62
     1
  6
CONTINUOUS
 10
792.914368
 20
286.980927
 11
792.914368
 21
275.730927
  0
LINE
  8
LC-003-002-----0
 62
     1
  6
CONTINUOUS
 10
789.264404
 20
275.730927
 11
792.914368
 21
275.730927
  0
LINE
  8
LC-003-002-----0
 62
     1
  6
CONTINUOUS
 10
919.264404
 20
286.980927
 11
922.914368
 21
286.980927
  0
LINE
  8
LC-003-002-----0
 62
     1
  6
CONTINUOUS
 10
922.914368
 20
286.980927
 11
922.914368
 21
275.730927
  0
LINE
  8
LC-003-002-----0
 62
     1
  6
CONTINUOUS
 10
919.264404
 20
275.730927
 11
922.914368
 21
275.730927
  0
LINE
  8
LC-003-002-----0
 62
     1
  6
CONTINUOUS
 10
789.264404
 20
286.980927
 11
789.264404
 21
275.730927
  0
LINE
  8
LC-003-002-----0
 62
     1
  6
CONTINUOUS
 10
789.264404
 20
219.730942
 11
789.264404
 21
119.730927
  0
LINE
  8
LC-003-002-----0
 62
     1
  6
CONTINUOUS
 10
773.589417
 20
259.730927
 11
938.589417
 21
259.730927
  0
LINE
  8
LC-003-002-----0
 62
     1
  6
CONTINUOUS
 10
919.264404
 20
219.730942
 11
919.264404
 21
141.730942
  0
ARC
  8
LC-003-002-----0
 62
     1
  6
CONTINUOUS
 10
606.914795
 20
220.830933
 40
66.150002
 50
292.955908
 51
247.044087
  0
LINE
  8
LC-003-002-----0
 62
     1
  6
CONTINUOUS
 10
773.589417
 20
276.730927
 11
773.589417
 21
162.730957
  0
LINE
  8
LC-003-002-----0
 62
     1
  6
CONTINUOUS
 10
938.589417
 20
276.730927
 11
938.589417
 21
162.730957
  0
LINE
  8
LC-003-002-----0
 62
     1
  6
CONTINUOUS
 10
792.914368
 20
279.730927
 11
919.264404
 21
279.730927
  0
LINE
  8
LC-003-002-----0
 62
     1
  6
CONTINUOUS
 10
922.914368
 20
279.730927
 11
935.589417
 21
279.730927
  0
LINE
  8
LC-003-002-----0
 62
     1
  6
CONTINUOUS
 10
776.589417
 20
159.730942
 11
789.264404
 21
159.730942
  0
LINE
  8
LC-003-002-----0
 62
     1
  6
CONTINUOUS
 10
922.914368
 20
159.730942
 11
935.589417
 21
159.730942
  0
LINE
  8
LC-003-002-----0
 62
     1
  6
CONTINUOUS
 10
919.264404
 20
152.480942
 11
922.914368
 21
152.480942
  0
LINE
  8
LC-003-002-----0
 62
     1
  6
CONTINUOUS
 10
922.914368
 20
152.480942
 11
922.914368
 21
219.730942
  0
LINE
  8
LC-003-002-----0
 62
     1
  6
CONTINUOUS
 10
581.114807
 20
159.919662
 11
583.903748
 21
151.518402
  0
LINE
  8
LC-003-002-----0
 62
     1
  6
CONTINUOUS
 10
590.972351
 20
145.475327
 11
603.614807
 21
143.377823
  0
ARC
  8
LC-003-002-----0
 62
     1
  6
CONTINUOUS
 10
776.589417
 20
276.730927
 40
3.000000
 50
90.000003
 51
180.000009
  0
ARC
  8
LC-003-002-----0
 62
     1
  6
CONTINUOUS
 10
776.589417
 20
162.730942
 40
3.000000
 50
180.000009
 51
269.999997
  0
LINE
  8
LC-003-002-----0
 62
     1
  6
CONTINUOUS
 10
610.214783
 20
143.377823
 11
622.857239
 21
145.475327
  0
LINE
  8
LC-003-002-----0
 62
     1
  6
CONTINUOUS
 10
632.714783
 20
159.919662
 11
629.925842
 21
151.518402
  0
CIRCLE
  8
LC-003-002-----0
 62
     1
  6
CONTINUOUS
 10
617.714783
 20
152.377823
 40
3.750000
  0
ARC
  8
LC-003-002-----0
 62
     1
  6
CONTINUOUS
 10
935.589417
 20
162.730942
 40
3.000000
 50
269.999997
 51
0.000000
  0
CIRCLE
  8
LC-003-002-----0
 62
     1
  6
CONTINUOUS
 10
596.114807
 20
152.377823
 40
3.750000
  0
ARC
  8
LC-003-002-----0
 62
     1
  6
CONTINUOUS
 10
592.445374
 20
154.353958
 40
9.000000
 50
198.364584
 51
260.579876
  0
ARC
  8
LC-003-002-----0
 62
     1
  6
CONTINUOUS
 10
621.384216
 20
154.353958
 40
9.000000
 50
279.420126
 51
341.635419
  0
ARC
  8
LC-003-002-----0
 62
     1
  6
CONTINUOUS
 10
935.589417
 20
276.730927
 40
3.000000
 50
0.000000
 51
90.000003
  0
LINE
  8
LC-003-002-----0
 62
     1
  6
CONTINUOUS
 10
920.089417
 20
270.730927
 11
902.640320
 21
267.459229
  0
LINE
  8
LC-003-002-----0
 62
     1
  6
CONTINUOUS
 10
920.089417
 20
262.730927
 11
904.089417
 21
259.730927
  0
CIRCLE
  8
LC-003-002-----0
 62
     1
  6
CONTINUOUS
 10
856.089417
 20
263.730927
 40
4.000000
  0
CIRCLE
  8
LC-003-002-----0
 62
     1
  6
CONTINUOUS
 10
864.089417
 20
263.730927
 40
4.000000
  0
CIRCLE
  8
LC-003-002-----0
 62
     1
  6
CONTINUOUS
 10
872.089417
 20
263.730927
 40
4.000000
  0
CIRCLE
  8
LC-003-002-----0
 62
     1
  6
CONTINUOUS
 10
880.089417
 20
263.730927
 40
4.000000
  0
CIRCLE
  8
LC-003-002-----0
 62
     1
  6
CONTINUOUS
 10
888.089417
 20
263.730927
 40
4.000000
  0
CIRCLE
  8
LC-003-002-----0
 62
     1
  6
CONTINUOUS
 10
896.089417
 20
263.730927
 40
4.000000
  0
CIRCLE
  8
LC-003-002-----0
 62
     1
  6
CONTINUOUS
 10
904.089417
 20
263.730927
 40
4.000000
  0
CIRCLE
  8
LC-003-002-----0
 62
     1
  6
CONTINUOUS
 10
912.089417
 20
265.230927
 40
4.000000
  0
CIRCLE
  8
LC-003-002-----0
 62
     1
  6
CONTINUOUS
 10
920.089417
 20
266.730927
 40
4.000000
  0
LINE
  8
LC-003-002-----0
 62
     1
  6
CONTINUOUS
 10
924.089417
 20
266.730927
 11
931.589417
 21
266.730927
  0
LINE
  8
LC-003-002-----0
 62
     1
  6
CONTINUOUS
 10
931.589417
 20
266.730927
 11
931.589417
 21
259.730927
  0
LINE
  8
LC-003-002-----0
 62
     1
  6
CONTINUOUS
 10
809.538452
 20
267.459229
 11
902.640320
 21
267.459229
  0
LINE
  8
LC-003-002-----0
 62
     1
  6
CONTINUOUS
 10
792.089417
 20
270.730927
 11
809.538452
 21
267.459229
  0
CIRCLE
  8
LC-003-002-----0
 62
     1
  6
CONTINUOUS
 10
848.089417
 20
263.730927
 40
4.000000
  0
CIRCLE
  8
LC-003-002-----0
 62
     1
  6
CONTINUOUS
 10
840.089417
 20
263.730927
 40
4.000000
  0
CIRCLE
  8
LC-003-002-----0
 62
     1
  6
CONTINUOUS
 10
832.089417
 20
263.730927
 40
4.000000
  0
CIRCLE
  8
LC-003-002-----0
 62
     1
  6
CONTINUOUS
 10
824.089417
 20
263.730927
 40
4.000000
  0
CIRCLE
  8
LC-003-002-----0
 62
     1
  6
CONTINUOUS
 10
816.089417
 20
263.730927
 40
4.000000
  0
CIRCLE
  8
LC-003-002-----0
 62
     1
  6
CONTINUOUS
 10
808.089417
 20
263.730927
 40
4.000000
  0
CIRCLE
  8
LC-003-002-----0
 62
     1
  6
CONTINUOUS
 10
800.089417
 20
265.230927
 40
4.000000
  0
CIRCLE
  8
LC-003-002-----0
 62
     1
  6
CONTINUOUS
 10
792.089417
 20
266.730927
 40
4.000000
  0
LINE
  8
LC-003-002-----0
 62
     1
  6
CONTINUOUS
 10
788.089417
 20
266.730927
 11
780.589417
 21
266.730927
  0
LINE
  8
LC-003-002-----0
 62
     1
  6
CONTINUOUS
 10
780.589417
 20
266.730927
 11
780.589417
 21
259.730927
  0
CIRCLE
  8
LC-003-002-----0
 62
     1
  6
CONTINUOUS
 10
606.914795
 20
220.830933
 40
80.000000
  0
LINE
  8
LC-002-021-SLN-3
 62
     2
  6
CENTER
 10
784.264404
 20
142.230942
 11
820.264404
 21
142.230942
  0
LINE
  8
LC-001-150-----0
 62
     2
  6
DASHED
 10
789.264404
 20
148.894089
 11
815.264404
 21
148.894089
  0
LINE
  8
LC-001-150-----0
 62
     2
  6
DASHED
 10
789.264404
 20
135.230942
 11
815.264404
 21
135.230942
  0
LINE
  8
LC-003-002-----0
 62
     1
  6
CONTINUOUS
 10
773.589417
 20
259.730927
 11
756.676575
 21
259.730927
  0
LINE
  8
LC-003-002-----0
 62
     1
  6
CONTINUOUS
 10
938.589417
 20
259.730927
 11
959.290283
 21
259.730927
  0
LINE
  8
LC-003-002-----0
 62
     1
  6
CONTINUOUS
 10
773.589417
 20
179.730942
 11
755.025146
 21
179.730942
  0
LINE
  8
LC-003-002-----0
 62
     1
  6
CONTINUOUS
 10
938.589417
 20
179.730942
 11
961.672302
 21
179.730942
  0
LINE
  8
LC-008-003-----0
 62
     2
  6
CONTINUOUS
 10
755.025146
 20
179.730942
 11
753.009949
 21
193.025314
  0
LINE
  8
LC-008-003-----0
 62
     2
  6
CONTINUOUS
 10
753.009949
 20
193.025314
 11
755.223999
 21
208.764069
  0
LINE
  8
LC-008-003-----0
 62
     2
  6
CONTINUOUS
 10
755.223999
 20
208.764069
 11
753.958801
 21
230.226028
  0
LINE
  8
LC-008-003-----0
 62
     2
  6
CONTINUOUS
 10
753.958801
 20
230.226028
 11
757.754333
 21
249.303314
  0
LINE
  8
LC-008-003-----0
 62
     2
  6
CONTINUOUS
 10
757.754333
 20
249.303314
 11
756.676575
 21
259.730927
  0
LINE
  8
LC-008-003-----0
 62
     2
  6
CONTINUOUS
 10
961.672302
 20
179.730942
 11
961.824097
 21
186.825195
  0
LINE
  8
LC-008-003-----0
 62
     2
  6
CONTINUOUS
 10
961.824097
 20
186.825195
 11
960.242615
 21
203.994751
  0
LINE
  8
LC-008-003-----0
 62
     2
  6
CONTINUOUS
 10
960.242615
 20
203.994751
 11
961.507751
 21
224.502838
  0
LINE
  8
LC-008-003-----0
 62
     2
  6
CONTINUOUS
 10
961.507751
 20
224.502838
 11
958.344849
 21
241.910873
  0
LINE
  8
LC-008-003-----0
 62
     2
  6
CONTINUOUS
 10
958.344849
 20
241.910873
 11
959.290283
 21
259.730927
  0
LINE
  8
LC-003-002-----0
 62
     1
  6
CONTINUOUS
 10
919.264404
 20
275.730927
 11
919.264404
 21
286.980927
  0
CIRCLE
  8
LC-003-002-----0
 62
     1
  6
CONTINUOUS
 10
606.914795
 20
219.730942
 40
40.000000
  0
LINE
  8
LC-003-002-----0
 62
     1
  6
CONTINUOUS
 10
789.264404
 20
300.830933
 11
792.914368
 21
300.830933
  0
LINE
  8
LC-003-002-----0
 62
     1
  6
CONTINUOUS
 10
792.914368
 20
286.980927
 11
792.914368
 21
300.830933
  0
ENDSEC
  0
EOF
