  0
SECTION
  2
HEADER
  9
$LIMMIN
 10
345.294495
 20
439.277039
  9
$LIMMAX
 10
514.203674
 20
529.906677
  9
$EXTMIN
 10
345.294495
 20
439.277039
  9
$EXTMAX
 10
514.203674
 20
529.906677
  0
ENDSEC
  0
SECTION
  2
TABLES
  0
TABLE
  2
LTYPE
 70
     3
  0
LTYPE
  2
CONTINUOUS
 70
    64
  3
Ausgezogene Linie
 72
    65
 73
     0
 40
0.0
  0
LTYPE
  2
DASHED
 70
    64
  3
__ __ __ __ __ __ __ __ __ __ __ __ __ __ __
 72
    65
 73
     2
 40
0.75
 49
0.5
 49
-0.25
  0
LTYPE
  2
DASHDOT
 70
    64
  3
__ . __ . __ . __ . __ . __ . __ . __ . __ . __
 72
    65
 73
     4
 40
1.0
 49
0.5
 49
-0.25
 49
0.0
 49
-0.25
  0
ENDTAB
  0
TABLE
  2
LAYER
 70
     4
  0
LAYER
  2
LC-INFO-1-1-MM-A1-0
 70
    64
 62
     7
  6
CONTINUOUS
  0
LAYER
  2
LC-003-002-----0
 70
    64
 62
     7
  6
CONTINUOUS
  0
LAYER
  2
LC-004-006-----0
 70
    64
 62
     7
  6
CONTINUOUS
  0
LAYER
  2
LC-006-012-----0
 70
    64
 62
     7
  6
CONTINUOUS
  0
ENDTAB
  0
TABLE
  2
STYLE
 70
     1
  0
STYLE
  2
TXT8
 70
    64
 40
0.0
 41
1.0
 50
0.0
 71
     0
 42
3.500000
  3
TXT8
  4

  0
ENDTAB
  0
ENDSEC
  0
SECTION
  2
BLOCKS
  0
ENDSEC
  0
SECTION
  2
ENTITIES
  0
ARC
  8
LC-003-002-----0
 62
     1
  6
CONTINUOUS
 10
489.095337
 20
477.266754
 40
4.364061
 50
0.516885
 51
36.830497
  0
ARC
  8
LC-003-002-----0
 62
     1
  6
CONTINUOUS
 10
487.783722
 20
476.266174
 40
6.013715
 50
36.970096
 51
66.213712
  0
ARC
  8
LC-003-002-----0
 62
     1
  6
CONTINUOUS
 10
486.990448
 20
474.611816
 40
7.847720
 50
65.785384
 51
90.227885
  0
ARC
  8
LC-003-002-----0
 62
     1
  6
CONTINUOUS
 10
486.928009
 20
474.611816
 40
7.847720
 50
89.772120
 51
114.214615
  0
ARC
  8
LC-003-002-----0
 62
     1
  6
CONTINUOUS
 10
486.134705
 20
476.266174
 40
6.013715
 50
113.786287
 51
143.029899
  0
ARC
  8
LC-003-002-----0
 62
     1
  6
CONTINUOUS
 10
484.823090
 20
477.266754
 40
4.364061
 50
143.169508
 51
179.483110
  0
ARC
  8
LC-003-002-----0
 62
     1
  6
CONTINUOUS
 10
484.823090
 20
477.345490
 40
4.364061
 50
180.516890
 51
216.830492
  0
ARC
  8
LC-003-002-----0
 62
     1
  6
CONTINUOUS
 10
486.134705
 20
478.346100
 40
6.013715
 50
216.970101
 51
246.213713
  0
ARC
  8
LC-003-002-----0
 62
     1
  6
CONTINUOUS
 10
486.928009
 20
480.000458
 40
7.847720
 50
245.785385
 51
270.227880
  0
ARC
  8
LC-003-002-----0
 62
     1
  6
CONTINUOUS
 10
486.990448
 20
480.000458
 40
7.847720
 50
269.772115
 51
294.214616
  0
ARC
  8
LC-003-002-----0
 62
     1
  6
CONTINUOUS
 10
487.783722
 20
478.346100
 40
6.013715
 50
293.786288
 51
323.029904
  0
ARC
  8
LC-003-002-----0
 62
     1
  6
CONTINUOUS
 10
489.095337
 20
477.345490
 40
4.364061
 50
323.169503
 51
359.483115
  0
ARC
  8
LC-003-002-----0
 62
     1
  6
CONTINUOUS
 10
484.747314
 20
479.998596
 40
9.711952
 50
359.834872
 51
26.293756
  0
ARC
  8
LC-003-002-----0
 62
     1
  6
CONTINUOUS
 10
486.105469
 20
480.709991
 40
8.179279
 50
26.040410
 51
55.746378
  0
ARC
  8
LC-003-002-----0
 62
     1
  6
CONTINUOUS
 10
486.926910
 20
481.886169
 40
6.744760
 50
55.890308
 51
89.725443
  0
ARC
  8
LC-003-002-----0
 62
     1
  6
CONTINUOUS
 10
486.991547
 20
481.886169
 40
6.744760
 50
90.274556
 51
124.109687
  0
ARC
  8
LC-003-002-----0
 62
     1
  6
CONTINUOUS
 10
487.812988
 20
480.709991
 40
8.179279
 50
124.253627
 51
153.959595
  0
ARC
  8
LC-003-002-----0
 62
     1
  6
CONTINUOUS
 10
489.171143
 20
479.998596
 40
9.711952
 50
153.706249
 51
180.165122
  0
ARC
  8
LC-003-002-----0
 62
     1
  6
CONTINUOUS
 10
489.171143
 20
479.942627
 40
9.711952
 50
179.834878
 51
206.293751
  0
ARC
  8
LC-003-002-----0
 62
     1
  6
CONTINUOUS
 10
487.812988
 20
479.231232
 40
8.179279
 50
206.040405
 51
235.746373
  0
ARC
  8
LC-003-002-----0
 62
     1
  6
CONTINUOUS
 10
486.991547
 20
478.055054
 40
6.744760
 50
235.890313
 51
269.725444
  0
ARC
  8
LC-003-002-----0
 62
     1
  6
CONTINUOUS
 10
486.926910
 20
478.055054
 40
6.744760
 50
270.274557
 51
304.109692
  0
ARC
  8
LC-003-002-----0
 62
     1
  6
CONTINUOUS
 10
486.105469
 20
479.231232
 40
8.179279
 50
304.253622
 51
333.959590
  0
ARC
  8
LC-003-002-----0
 62
     1
  6
CONTINUOUS
 10
484.747314
 20
479.942627
 40
9.711952
 50
333.706244
 51
0.165128
  0
LINE
  8
LC-003-002-----0
 62
     1
  6
CONTINUOUS
 10
351.627167
 20
512.031311
 11
351.627167
 21
458.031311
  0
LINE
  8
LC-003-002-----0
 62
     1
  6
CONTINUOUS
 10
362.627167
 20
447.031311
 11
365.955811
 21
447.031311
  0
LINE
  8
LC-003-002-----0
 62
     1
  6
CONTINUOUS
 10
362.627167
 20
523.031311
 11
416.627167
 21
523.031311
  0
LINE
  8
LC-003-002-----0
 62
     1
  6
CONTINUOUS
 10
427.627167
 20
512.031311
 11
427.627167
 21
458.031311
  0
LINE
  8
LC-004-006-----0
 62
     2
  6
DASHDOT
 10
389.627167
 20
439.277039
 11
389.627167
 21
529.906677
  0
LINE
  8
LC-004-006-----0
 62
     2
  6
DASHDOT
 10
345.294495
 20
485.031311
 11
435.169037
 21
485.031311
  0
ARC
  8
LC-003-002-----0
 62
     1
  6
CONTINUOUS
 10
389.627167
 20
485.031311
 40
15.000000
 50
245.739172
 51
234.260835
  0
ARC
  8
LC-003-002-----0
 62
     1
  6
CONTINUOUS
 10
389.627167
 20
485.031311
 40
24.500000
 50
243.510099
 51
236.489894
  0
LINE
  8
LC-004-006-----0
 62
     2
  6
DASHDOT
 10
416.627167
 20
503.842957
 11
416.627167
 21
520.439453
  0
LINE
  8
LC-004-006-----0
 62
     2
  6
DASHDOT
 10
408.861053
 20
512.031311
 11
424.816345
 21
512.031311
  0
CIRCLE
  8
LC-003-002-----0
 62
     1
  6
CONTINUOUS
 10
416.627167
 20
512.031311
 40
4.500000
  0
ARC
  8
LC-003-002-----0
 62
     1
  6
CONTINUOUS
 10
416.627167
 20
512.031311
 40
11.000000
 50
0.000000
 51
90.000003
  0
LINE
  8
LC-004-006-----0
 62
     2
  6
DASHDOT
 10
416.627167
 20
466.219635
 11
416.627167
 21
449.623169
  0
LINE
  8
LC-004-006-----0
 62
     2
  6
DASHDOT
 10
408.861053
 20
458.031311
 11
424.816345
 21
458.031311
  0
CIRCLE
  8
LC-003-002-----0
 62
     1
  6
CONTINUOUS
 10
416.627167
 20
458.031311
 40
4.500000
  0
ARC
  8
LC-003-002-----0
 62
     1
  6
CONTINUOUS
 10
416.627167
 20
458.031311
 40
11.000000
 50
269.999997
 51
0.000000
  0
LINE
  8
LC-004-006-----0
 62
     2
  6
DASHDOT
 10
362.627167
 20
503.842957
 11
362.627167
 21
520.439453
  0
LINE
  8
LC-004-006-----0
 62
     2
  6
DASHDOT
 10
370.393311
 20
512.031311
 11
354.438019
 21
512.031311
  0
CIRCLE
  8
LC-003-002-----0
 62
     1
  6
CONTINUOUS
 10
362.627167
 20
512.031311
 40
4.500000
  0
ARC
  8
LC-003-002-----0
 62
     1
  6
CONTINUOUS
 10
362.627167
 20
512.031311
 40
11.000000
 50
90.000003
 51
180.000009
  0
LINE
  8
LC-004-006-----0
 62
     2
  6
DASHDOT
 10
362.627167
 20
466.219635
 11
362.627167
 21
449.623169
  0
LINE
  8
LC-004-006-----0
 62
     2
  6
DASHDOT
 10
370.393311
 20
458.031311
 11
354.438019
 21
458.031311
  0
CIRCLE
  8
LC-003-002-----0
 62
     1
  6
CONTINUOUS
 10
362.627167
 20
458.031311
 40
4.500000
  0
ARC
  8
LC-003-002-----0
 62
     1
  6
CONTINUOUS
 10
362.627167
 20
458.031311
 40
11.000000
 50
180.000009
 51
269.999997
  0
LINE
  8
LC-003-002-----0
 62
     1
  6
CONTINUOUS
 10
369.419922
 20
447.031311
 11
416.627167
 21
447.031311
  0
LINE
  8
LC-003-002-----0
 62
     1
  6
CONTINUOUS
 10
380.865723
 20
472.856049
 11
365.955811
 21
447.031311
  0
LINE
  8
LC-003-002-----0
 62
     1
  6
CONTINUOUS
 10
383.463806
 20
471.356049
 11
369.419922
 21
447.031311
  0
LINE
  8
LC-006-012-----0
 62
     2
  6
DASHED
 10
366.921417
 20
479.800751
 11
351.627167
 21
488.630859
  0
LINE
  8
LC-004-006-----0
 62
     2
  6
DASHDOT
 10
392.728027
 20
456.241028
 11
348.058289
 21
482.031128
  0
LINE
  8
LC-006-012-----0
 62
     2
  6
DASHED
 10
359.421417
 20
466.810364
 11
351.627167
 21
471.310364
  0
LINE
  8
LC-006-012-----0
 62
     2
  6
DASHED
 10
378.886810
 20
469.428406
 11
365.421417
 21
477.202667
  0
LINE
  8
LC-006-012-----0
 62
     2
  6
DASHED
 10
359.421417
 20
466.810364
 11
366.921417
 21
479.800751
  0
LINE
  8
LC-006-012-----0
 62
     2
  6
DASHED
 10
374.386810
 20
461.634186
 11
360.921417
 21
469.408447
  0
LINE
  8
LC-006-012-----0
 62
     2
  6
DASHED
 10
365.170410
 20
476.770233
 11
378.636810
 21
468.995392
  0
LINE
  8
LC-003-002-----0
 62
     1
  6
CONTINUOUS
 10
378.636810
 20
468.995392
 11
381.234863
 21
467.495392
  0
LINE
  8
LC-006-012-----0
 62
     2
  6
DASHED
 10
381.234863
 20
467.495392
 11
390.744904
 21
462.004791
  0
LINE
  8
LC-006-012-----0
 62
     2
  6
DASHED
 10
361.170410
 20
469.842041
 11
374.636810
 21
462.067200
  0
LINE
  8
LC-003-002-----0
 62
     1
  6
CONTINUOUS
 10
374.636810
 20
462.067200
 11
377.234863
 21
460.567200
  0
LINE
  8
LC-006-012-----0
 62
     2
  6
DASHED
 10
377.234863
 20
460.567200
 11
386.744904
 21
455.076569
  0
LINE
  8
LC-006-012-----0
 62
     2
  6
DASHED
 10
387.557404
 20
455.545685
 11
377.641113
 21
461.270844
  0
LINE
  8
LC-003-002-----0
 62
     2
  6
CONTINUOUS
 10
377.641113
 20
461.270844
 11
375.043060
 21
462.770844
  0
LINE
  8
LC-006-012-----0
 62
     2
  6
DASHED
 10
375.043060
 20
462.770844
 11
364.824249
 21
468.670685
  0
LINE
  8
LC-006-012-----0
 62
     2
  6
DASHED
 10
390.744904
 20
461.066589
 11
380.828613
 21
466.791748
  0
LINE
  8
LC-003-002-----0
 62
     2
  6
CONTINUOUS
 10
380.828613
 20
466.791748
 11
378.230560
 21
468.291748
  0
LINE
  8
LC-006-012-----0
 62
     2
  6
DASHED
 10
378.230560
 20
468.291748
 11
368.011749
 21
474.191589
  0
LINE
  8
LC-003-002-----0
 62
     1
  6
CONTINUOUS
 10
478.959229
 20
523.031311
 11
494.959229
 21
523.031311
  0
LINE
  8
LC-003-002-----0
 62
     1
  6
CONTINUOUS
 10
478.959229
 20
447.031311
 11
494.959229
 21
447.031311
  0
LINE
  8
LC-003-002-----0
 62
     1
  6
CONTINUOUS
 10
477.459229
 20
521.531311
 11
477.459229
 21
448.531311
  0
LINE
  8
LC-004-006-----0
 62
     2
  6
DASHDOT
 10
470.866547
 20
485.031311
 11
514.203674
 21
485.031311
  0
LINE
  8
LC-003-002-----0
 62
     1
  6
CONTINUOUS
 10
507.459229
 20
508.031311
 11
507.459229
 21
462.031311
  0
LINE
  8
LC-003-002-----0
 62
     1
  6
CONTINUOUS
 10
497.959229
 20
509.531311
 11
505.959229
 21
509.531311
  0
LINE
  8
LC-003-002-----0
 62
     1
  6
CONTINUOUS
 10
497.959229
 20
460.531311
 11
505.959229
 21
460.531311
  0
ARC
  8
LC-003-002-----0
 62
     1
  6
CONTINUOUS
 10
478.959229
 20
448.531311
 40
1.500000
 50
180.000009
 51
269.999997
  0
ARC
  8
LC-003-002-----0
 62
     1
  6
CONTINUOUS
 10
494.959229
 20
448.531311
 40
1.500000
 50
269.999997
 51
0.000000
  0
ARC
  8
LC-003-002-----0
 62
     1
  6
CONTINUOUS
 10
478.959229
 20
521.531311
 40
1.500000
 50
90.000003
 51
180.000009
  0
ARC
  8
LC-003-002-----0
 62
     1
  6
CONTINUOUS
 10
494.959229
 20
521.531311
 40
1.500000
 50
0.000000
 51
90.000003
  0
ARC
  8
LC-003-002-----0
 62
     1
  6
CONTINUOUS
 10
505.959229
 20
508.031311
 40
1.500000
 50
0.000000
 51
90.000003
  0
ARC
  8
LC-003-002-----0
 62
     1
  6
CONTINUOUS
 10
505.959229
 20
462.031311
 40
1.500000
 50
269.999997
 51
0.000000
  0
LINE
  8
LC-003-002-----0
 62
     1
  6
CONTINUOUS
 10
496.459229
 20
521.531311
 11
496.459229
 21
448.531311
  0
ARC
  8
LC-003-002-----0
 62
     1
  6
CONTINUOUS
 10
497.959229
 20
459.031311
 40
1.500000
 50
90.000003
 51
180.000009
  0
ARC
  8
LC-003-002-----0
 62
     1
  6
CONTINUOUS
 10
497.959229
 20
511.031311
 40
1.500000
 50
180.000009
 51
269.999997
  0
LINE
  8
LC-006-012-----0
 62
     2
  6
DASHED
 10
477.459229
 20
500.031311
 11
507.459229
 21
500.031311
  0
LINE
  8
LC-006-012-----0
 62
     2
  6
DASHED
 10
477.459229
 20
470.031311
 11
507.459229
 21
470.031311
  0
LINE
  8
LC-004-006-----0
 62
     2
  6
DASHDOT
 10
470.866547
 20
485.031311
 11
514.203674
 21
485.031311
  0
LINE
  8
LC-004-006-----0
 62
     2
  6
DASHDOT
 10
470.866547
 20
512.031311
 11
500.154144
 21
512.031311
  0
LINE
  8
LC-006-012-----0
 62
     2
  6
DASHED
 10
477.459229
 20
516.531311
 11
496.459229
 21
516.531311
  0
LINE
  8
LC-006-012-----0
 62
     2
  6
DASHED
 10
477.459229
 20
507.531311
 11
496.459229
 21
507.531311
  0
LINE
  8
LC-004-006-----0
 62
     2
  6
DASHDOT
 10
470.866547
 20
458.031311
 11
500.154144
 21
458.031311
  0
LINE
  8
LC-006-012-----0
 62
     2
  6
DASHED
 10
477.459229
 20
453.531311
 11
496.459229
 21
453.531311
  0
LINE
  8
LC-006-012-----0
 62
     2
  6
DASHED
 10
477.459229
 20
462.531311
 11
496.459229
 21
462.531311
  0
LINE
  8
LC-004-006-----0
 62
     2
  6
DASHDOT
 10
478.027527
 20
479.970612
 11
495.865784
 21
479.970612
  0
LINE
  8
LC-004-006-----0
 62
     2
  6
DASHDOT
 10
486.959229
 20
467.993042
 11
486.959229
 21
491.897675
  0
LINE
  8
LC-006-012-----0
 62
     2
  6
DASHED
 10
366.420410
 20
478.935303
 11
359.920410
 21
467.676971
  0
LINE
  8
LC-006-012-----0
 62
     2
  6
DASHED
 10
360.618042
 20
482.285309
 11
366.420410
 21
478.935303
  0
ARC
  8
LC-006-012-----0
 62
     2
  6
DASHED
 10
359.968018
 20
481.159454
 40
1.300000
 50
60.000002
 51
149.999997
  0
LINE
  8
LC-006-012-----0
 62
     2
  6
DASHED
 10
353.642181
 20
472.802795
 11
358.842194
 21
481.809448
  0
LINE
  8
LC-006-012-----0
 62
     2
  6
DASHED
 10
354.118042
 20
471.026978
 11
359.920410
 21
467.676971
  0
ARC
  8
LC-006-012-----0
 62
     2
  6
DASHED
 10
354.768036
 20
472.152802
 40
1.300000
 50
149.999997
 51
239.999997
  0
LINE
  8
LC-006-012-----0
 62
     2
  6
DASHED
 10
386.744904
 20
455.076569
 11
387.557404
 21
455.545685
  0
LINE
  8
LC-006-012-----0
 62
     2
  6
DASHED
 10
390.744904
 20
462.004791
 11
390.744904
 21
461.066589
  0
LINE
  8
LC-006-012-----0
 62
     2
  6
DASHED
 10
390.744904
 20
461.066589
 11
387.557404
 21
455.545685
  0
LINE
  8
LC-006-012-----0
 62
     2
  6
DASHED
 10
390.744904
 20
462.004791
 11
386.744904
 21
455.076569
  0
LINE
  8
LC-006-012-----0
 62
     2
  6
DASHED
 10
368.417999
 20
474.895233
 11
364.417999
 21
467.967041
  0
LINE
  8
LC-003-002-----0
 62
     1
  6
CONTINUOUS
 10
484.959229
 20
479.904205
 11
488.959229
 21
479.904205
  0
LINE
  8
LC-003-002-----0
 62
     1
  6
CONTINUOUS
 10
484.959229
 20
474.708069
 11
488.959229
 21
474.708069
  0
LINE
  8
LC-003-002-----0
 62
     1
  6
CONTINUOUS
 10
483.459229
 20
477.306122
 11
484.959229
 21
479.904205
  0
LINE
  8
LC-003-002-----0
 62
     1
  6
CONTINUOUS
 10
490.459229
 20
477.306122
 11
488.959229
 21
479.904205
  0
LINE
  8
LC-003-002-----0
 62
     1
  6
CONTINUOUS
 10
483.459229
 20
477.306122
 11
484.959229
 21
474.708069
  0
LINE
  8
LC-003-002-----0
 62
     1
  6
CONTINUOUS
 10
490.459229
 20
477.306122
 11
488.959229
 21
474.708069
  0
LINE
  8
LC-003-002-----0
 62
     1
  6
CONTINUOUS
 10
484.959229
 20
477.645599
 11
488.959229
 21
477.645599
  0
LINE
  8
LC-003-002-----0
 62
     1
  6
CONTINUOUS
 10
484.959229
 20
479.904205
 11
484.959229
 21
477.645599
  0
LINE
  8
LC-003-002-----0
 62
     1
  6
CONTINUOUS
 10
488.959229
 20
479.904205
 11
488.959229
 21
477.645599
  0
LINE
  8
LC-003-002-----0
 62
     1
  6
CONTINUOUS
 10
484.111206
 20
476.176819
 11
484.959229
 21
477.645599
  0
LINE
  8
LC-003-002-----0
 62
     1
  6
CONTINUOUS
 10
489.807220
 20
476.176819
 11
488.959229
 21
477.645599
  0
ENDSEC
  0
EOF
