  0
SECTION
  2
HEADER
  9
$LIMMIN
 10
345.835052
 20
47.066151
  9
$LIMMAX
 10
562.514038
 20
172.478287
  9
$EXTMIN
 10
345.835052
 20
47.066151
  9
$EXTMAX
 10
562.514038
 20
172.478287
  0
ENDSEC
  0
SECTION
  2
TABLES
  0
TABLE
  2
LTYPE
 70
     3
  0
LTYPE
  2
CONTINUOUS
 70
    64
  3
Ausgezogene Linie
 72
    65
 73
     0
 40
0.0
  0
LTYPE
  2
DASHED
 70
    64
  3
__ __ __ __ __ __ __ __ __ __ __ __ __ __ __
 72
    65
 73
     2
 40
0.75
 49
0.5
 49
-0.25
  0
LTYPE
  2
DASHDOT
 70
    64
  3
__ . __ . __ . __ . __ . __ . __ . __ . __ . __
 72
    65
 73
     4
 40
1.0
 49
0.5
 49
-0.25
 49
0.0
 49
-0.25
  0
ENDTAB
  0
TABLE
  2
LAYER
 70
     4
  0
LAYER
  2
LC-INFO-1-1-MM-A1-0
 70
    64
 62
     7
  6
CONTINUOUS
  0
LAYER
  2
LC-003-002-----0
 70
    64
 62
     7
  6
CONTINUOUS
  0
LAYER
  2
LC-004-006-----0
 70
    64
 62
     7
  6
CONTINUOUS
  0
LAYER
  2
LC-006-012-----0
 70
    64
 62
     7
  6
CONTINUOUS
  0
ENDTAB
  0
TABLE
  2
STYLE
 70
     1
  0
STYLE
  2
TXT8
 70
    64
 40
0.0
 41
1.0
 50
0.0
 71
     0
 42
3.500000
  3
TXT8
  4

  0
ENDTAB
  0
ENDSEC
  0
SECTION
  2
BLOCKS
  0
ENDSEC
  0
SECTION
  2
ENTITIES
  0
ARC
  8
LC-003-002-----0
 62
     1
  6
CONTINUOUS
 10
525.384216
 20
99.388832
 40
5.371152
 50
0.516885
 51
36.830497
  0
ARC
  8
LC-003-002-----0
 62
     1
  6
CONTINUOUS
 10
523.769958
 20
98.157326
 40
7.401496
 50
36.970096
 51
66.213712
  0
ARC
  8
LC-003-002-----0
 62
     1
  6
CONTINUOUS
 10
522.793579
 20
96.121193
 40
9.658733
 50
65.785384
 51
90.227885
  0
ARC
  8
LC-003-002-----0
 62
     1
  6
CONTINUOUS
 10
522.716736
 20
96.121193
 40
9.658733
 50
89.772120
 51
114.214615
  0
ARC
  8
LC-003-002-----0
 62
     1
  6
CONTINUOUS
 10
521.740356
 20
98.157326
 40
7.401496
 50
113.786287
 51
143.029899
  0
ARC
  8
LC-003-002-----0
 62
     1
  6
CONTINUOUS
 10
520.126099
 20
99.388832
 40
5.371152
 50
143.169508
 51
179.483110
  0
ARC
  8
LC-003-002-----0
 62
     1
  6
CONTINUOUS
 10
520.126099
 20
99.485741
 40
5.371152
 50
180.516890
 51
216.830492
  0
ARC
  8
LC-003-002-----0
 62
     1
  6
CONTINUOUS
 10
521.740356
 20
100.717255
 40
7.401496
 50
216.970101
 51
246.213713
  0
ARC
  8
LC-003-002-----0
 62
     1
  6
CONTINUOUS
 10
522.716736
 20
102.753380
 40
9.658733
 50
245.785385
 51
270.227880
  0
ARC
  8
LC-003-002-----0
 62
     1
  6
CONTINUOUS
 10
522.793579
 20
102.753380
 40
9.658733
 50
269.772115
 51
294.214616
  0
ARC
  8
LC-003-002-----0
 62
     1
  6
CONTINUOUS
 10
523.769958
 20
100.717255
 40
7.401496
 50
293.786288
 51
323.029904
  0
ARC
  8
LC-003-002-----0
 62
     1
  6
CONTINUOUS
 10
525.384216
 20
99.485741
 40
5.371152
 50
323.169503
 51
359.483115
  0
ARC
  8
LC-003-002-----0
 62
     1
  6
CONTINUOUS
 10
520.100830
 20
102.568367
 40
11.654342
 50
359.834872
 51
26.293756
  0
ARC
  8
LC-003-002-----0
 62
     1
  6
CONTINUOUS
 10
521.730652
 20
103.422043
 40
9.815135
 50
26.040410
 51
55.746378
  0
ARC
  8
LC-003-002-----0
 62
     1
  6
CONTINUOUS
 10
522.716370
 20
104.833466
 40
8.093712
 50
55.890308
 51
89.725443
  0
ARC
  8
LC-003-002-----0
 62
     1
  6
CONTINUOUS
 10
522.793945
 20
104.833466
 40
8.093712
 50
90.274556
 51
124.109687
  0
ARC
  8
LC-003-002-----0
 62
     1
  6
CONTINUOUS
 10
523.779663
 20
103.422043
 40
9.815135
 50
124.253627
 51
153.959595
  0
ARC
  8
LC-003-002-----0
 62
     1
  6
CONTINUOUS
 10
525.409424
 20
102.568367
 40
11.654342
 50
153.706249
 51
180.165122
  0
ARC
  8
LC-003-002-----0
 62
     1
  6
CONTINUOUS
 10
525.409424
 20
102.501190
 40
11.654342
 50
179.834878
 51
206.293751
  0
ARC
  8
LC-003-002-----0
 62
     1
  6
CONTINUOUS
 10
523.779663
 20
101.647522
 40
9.815135
 50
206.040405
 51
235.746373
  0
ARC
  8
LC-003-002-----0
 62
     1
  6
CONTINUOUS
 10
522.793945
 20
100.236092
 40
8.093712
 50
235.890313
 51
269.725444
  0
ARC
  8
LC-003-002-----0
 62
     1
  6
CONTINUOUS
 10
522.716370
 20
100.236092
 40
8.093712
 50
270.274557
 51
304.109692
  0
ARC
  8
LC-003-002-----0
 62
     1
  6
CONTINUOUS
 10
521.730652
 20
101.647522
 40
9.815135
 50
304.253622
 51
333.959590
  0
ARC
  8
LC-003-002-----0
 62
     1
  6
CONTINUOUS
 10
520.100830
 20
102.501190
 40
11.654342
 50
333.706244
 51
0.165128
  0
LINE
  8
LC-003-002-----0
 62
     1
  6
CONTINUOUS
 10
351.627167
 20
146.935211
 11
351.627167
 21
71.935226
  0
LINE
  8
LC-003-002-----0
 62
     1
  6
CONTINUOUS
 10
367.127167
 20
56.435219
 11
375.377686
 21
56.435219
  0
LINE
  8
LC-003-002-----0
 62
     1
  6
CONTINUOUS
 10
367.127167
 20
162.435211
 11
442.127167
 21
162.435211
  0
LINE
  8
LC-003-002-----0
 62
     1
  6
CONTINUOUS
 10
457.627167
 20
146.935211
 11
457.627167
 21
71.935226
  0
LINE
  8
LC-004-006-----0
 62
     2
  6
DASHDOT
 10
404.627167
 20
47.066151
 11
404.627167
 21
172.478287
  0
LINE
  8
LC-004-006-----0
 62
     2
  6
DASHDOT
 10
345.835052
 20
109.435219
 11
463.876617
 21
109.435219
  0
LINE
  8
LC-004-006-----0
 62
     2
  6
DASHDOT
 10
433.194885
 20
146.935211
 11
450.043610
 21
146.935211
  0
LINE
  8
LC-004-006-----0
 62
     2
  6
DASHDOT
 10
442.127167
 20
138.331696
 11
442.127167
 21
155.316177
  0
CIRCLE
  8
LC-003-002-----0
 62
     1
  6
CONTINUOUS
 10
442.127167
 20
146.935211
 40
5.500000
  0
ARC
  8
LC-003-002-----0
 62
     1
  6
CONTINUOUS
 10
442.127167
 20
146.935211
 40
15.500000
 50
0.000000
 51
90.000003
  0
LINE
  8
LC-004-006-----0
 62
     2
  6
DASHDOT
 10
433.194885
 20
71.935219
 11
450.043610
 21
71.935219
  0
LINE
  8
LC-004-006-----0
 62
     2
  6
DASHDOT
 10
442.127167
 20
80.538727
 11
442.127167
 21
63.554256
  0
CIRCLE
  8
LC-003-002-----0
 62
     1
  6
CONTINUOUS
 10
442.127167
 20
71.935219
 40
5.500000
  0
ARC
  8
LC-003-002-----0
 62
     1
  6
CONTINUOUS
 10
442.127167
 20
71.935219
 40
15.500000
 50
269.999997
 51
0.000000
  0
LINE
  8
LC-004-006-----0
 62
     2
  6
DASHDOT
 10
376.059479
 20
146.935211
 11
359.210754
 21
146.935211
  0
LINE
  8
LC-004-006-----0
 62
     2
  6
DASHDOT
 10
367.127167
 20
138.331696
 11
367.127167
 21
155.316177
  0
CIRCLE
  8
LC-003-002-----0
 62
     1
  6
CONTINUOUS
 10
367.127167
 20
146.935211
 40
5.500000
  0
LINE
  8
LC-004-006-----0
 62
     2
  6
DASHDOT
 10
376.059479
 20
71.935219
 11
359.210754
 21
71.935219
  0
LINE
  8
LC-004-006-----0
 62
     2
  6
DASHDOT
 10
367.127167
 20
80.538727
 11
367.127167
 21
63.554256
  0
CIRCLE
  8
LC-003-002-----0
 62
     1
  6
CONTINUOUS
 10
367.127167
 20
71.935219
 40
5.500000
  0
ARC
  8
LC-003-002-----0
 62
     1
  6
CONTINUOUS
 10
367.127167
 20
71.935219
 40
15.500000
 50
180.000009
 51
269.999997
  0
ARC
  8
LC-003-002-----0
 62
     1
  6
CONTINUOUS
 10
367.127167
 20
146.935211
 40
15.500000
 50
90.000003
 51
180.000009
  0
ARC
  8
LC-003-002-----0
 62
     1
  6
CONTINUOUS
 10
404.627167
 20
109.435219
 40
25.000000
 50
247.588569
 51
238.411431
  0
ARC
  8
LC-003-002-----0
 62
     1
  6
CONTINUOUS
 10
404.627167
 20
109.435219
 40
37.500000
 50
246.057227
 51
239.942773
  0
LINE
  8
LC-003-002-----0
 62
     1
  6
CONTINUOUS
 10
379.866974
 20
56.435219
 11
442.127167
 21
56.435219
  0
LINE
  8
LC-003-002-----0
 62
     1
  6
CONTINUOUS
 10
391.531769
 20
88.139427
 11
375.377686
 21
56.435219
  0
LINE
  8
LC-003-002-----0
 62
     1
  6
CONTINUOUS
 10
395.095795
 20
86.323463
 11
379.866974
 21
56.435223
  0
LINE
  8
LC-003-002-----0
 62
     1
  6
CONTINUOUS
 10
504.755157
 20
159.935211
 11
504.755157
 21
58.935226
  0
LINE
  8
LC-003-002-----0
 62
     1
  6
CONTINUOUS
 10
507.255157
 20
162.435211
 11
538.255127
 21
162.435211
  0
LINE
  8
LC-006-012-----0
 62
     2
  6
DASHED
 10
370.153473
 20
102.230934
 11
351.627167
 21
112.927086
  0
LINE
  8
LC-004-006-----0
 62
     2
  6
DASHDOT
 10
404.472351
 20
72.024597
 11
345.835052
 21
105.878876
  0
LINE
  8
LC-006-012-----0
 62
     2
  6
DASHED
 10
361.153473
 20
86.642479
 11
351.627167
 21
92.142479
  0
LINE
  8
LC-006-012-----0
 62
     2
  6
DASHED
 10
390.629120
 20
86.367851
 11
368.403473
 21
99.199844
  0
LINE
  8
LC-006-012-----0
 62
     2
  6
DASHED
 10
361.153473
 20
86.642479
 11
370.153473
 21
102.230934
  0
LINE
  8
LC-006-012-----0
 62
     2
  6
DASHED
 10
385.628357
 20
76.553329
 11
362.903473
 21
89.673569
  0
LINE
  8
LC-006-012-----0
 62
     2
  6
DASHED
 10
363.152435
 20
90.107162
 11
385.855682
 21
76.999443
  0
LINE
  8
LC-003-002-----0
 62
     1
  6
CONTINUOUS
 10
385.855682
 20
76.999443
 11
389.324524
 21
74.996704
  0
LINE
  8
LC-006-012-----0
 62
     2
  6
DASHED
 10
389.324524
 20
74.996704
 11
397.305969
 21
70.388618
  0
LINE
  8
LC-006-012-----0
 62
     2
  6
DASHED
 10
368.152435
 20
98.767418
 11
390.401825
 21
85.921738
  0
LINE
  8
LC-003-002-----0
 62
     1
  6
CONTINUOUS
 10
390.401825
 20
85.921738
 11
393.870667
 21
83.918991
  0
LINE
  8
LC-006-012-----0
 62
     2
  6
DASHED
 10
393.870667
 20
83.918991
 11
402.305969
 21
79.048874
  0
LINE
  8
LC-006-012-----0
 62
     2
  6
DASHED
 10
398.280975
 20
70.951538
 11
389.767792
 21
75.866623
  0
LINE
  8
LC-003-002-----0
 62
     2
  6
CONTINUOUS
 10
389.767792
 20
75.866623
 11
386.298920
 21
77.869370
  0
LINE
  8
LC-006-012-----0
 62
     2
  6
DASHED
 10
386.298920
 20
77.869370
 11
367.537079
 21
88.701538
  0
LINE
  8
LC-006-012-----0
 62
     2
  6
DASHED
 10
402.305969
 20
77.923042
 11
393.427429
 21
83.049072
  0
LINE
  8
LC-003-002-----0
 62
     2
  6
CONTINUOUS
 10
393.427429
 20
83.049072
 11
389.958557
 21
85.051819
  0
LINE
  8
LC-006-012-----0
 62
     2
  6
DASHED
 10
389.958557
 20
85.051819
 11
371.562073
 21
95.673042
  0
LINE
  8
LC-006-012-----0
 62
     2
  6
DASHED
 10
369.652435
 20
101.365494
 11
361.652435
 21
87.509087
  0
LINE
  8
LC-006-012-----0
 62
     2
  6
DASHED
 10
362.377838
 20
105.565491
 11
369.652435
 21
101.365494
  0
ARC
  8
LC-006-012-----0
 62
     2
  6
DASHED
 10
361.577850
 20
104.179848
 40
1.600000
 50
60.000002
 51
149.999997
  0
LINE
  8
LC-006-012-----0
 62
     2
  6
DASHED
 10
353.792206
 20
93.894722
 11
360.192200
 21
104.979851
  0
LINE
  8
LC-006-012-----0
 62
     2
  6
DASHED
 10
354.377838
 20
91.709084
 11
361.652435
 21
87.509087
  0
ARC
  8
LC-006-012-----0
 62
     2
  6
DASHED
 10
355.177826
 20
93.094727
 40
1.600000
 50
149.999997
 51
239.999997
  0
LINE
  8
LC-006-012-----0
 62
     2
  6
DASHED
 10
397.305969
 20
70.388618
 11
398.280975
 21
70.951538
  0
LINE
  8
LC-006-012-----0
 62
     2
  6
DASHED
 10
402.305969
 20
79.048874
 11
402.305969
 21
77.923042
  0
LINE
  8
LC-006-012-----0
 62
     2
  6
DASHED
 10
402.305969
 20
77.923042
 11
398.280975
 21
70.951538
  0
LINE
  8
LC-006-012-----0
 62
     2
  6
DASHED
 10
402.305969
 20
79.048874
 11
397.305969
 21
70.388618
  0
LINE
  8
LC-006-012-----0
 62
     2
  6
DASHED
 10
372.049561
 20
96.517418
 11
367.049561
 21
87.857162
  0
LINE
  8
LC-003-002-----0
 62
     1
  6
CONTINUOUS
 10
507.255157
 20
56.435219
 11
538.255127
 21
56.435219
  0
LINE
  8
LC-003-002-----0
 62
     1
  6
CONTINUOUS
 10
543.255127
 20
146.935211
 11
552.255127
 21
146.935211
  0
LINE
  8
LC-003-002-----0
 62
     1
  6
CONTINUOUS
 10
543.255127
 20
71.935219
 11
552.255127
 21
71.935219
  0
LINE
  8
LC-003-002-----0
 62
     1
  6
CONTINUOUS
 10
540.755127
 20
159.935211
 11
540.755127
 21
58.935226
  0
LINE
  8
LC-003-002-----0
 62
     1
  6
CONTINUOUS
 10
554.755127
 20
144.435211
 11
554.755127
 21
74.435226
  0
ARC
  8
LC-003-002-----0
 62
     1
  6
CONTINUOUS
 10
507.255157
 20
159.935211
 40
2.500000
 50
90.000003
 51
180.000009
  0
ARC
  8
LC-003-002-----0
 62
     1
  6
CONTINUOUS
 10
538.255127
 20
159.935211
 40
2.500000
 50
0.000000
 51
90.000003
  0
ARC
  8
LC-003-002-----0
 62
     1
  6
CONTINUOUS
 10
507.255157
 20
58.935219
 40
2.500000
 50
180.000009
 51
269.999997
  0
ARC
  8
LC-003-002-----0
 62
     1
  6
CONTINUOUS
 10
538.255127
 20
58.935219
 40
2.500000
 50
269.999997
 51
0.000000
  0
ARC
  8
LC-003-002-----0
 62
     1
  6
CONTINUOUS
 10
552.255127
 20
144.435211
 40
2.500000
 50
0.000000
 51
90.000003
  0
ARC
  8
LC-003-002-----0
 62
     1
  6
CONTINUOUS
 10
552.255127
 20
74.435219
 40
2.500000
 50
269.999997
 51
0.000000
  0
ARC
  8
LC-003-002-----0
 62
     1
  6
CONTINUOUS
 10
543.255127
 20
69.435219
 40
2.500000
 50
90.000003
 51
180.000009
  0
ARC
  8
LC-003-002-----0
 62
     1
  6
CONTINUOUS
 10
543.255127
 20
149.435211
 40
2.500000
 50
180.000009
 51
269.999997
  0
LINE
  8
LC-004-006-----0
 62
     2
  6
DASHDOT
 10
493.981049
 20
109.435219
 11
562.514038
 21
109.435219
  0
LINE
  8
LC-004-006-----0
 62
     2
  6
DASHDOT
 10
499.111511
 20
146.935211
 11
543.255127
 21
146.935211
  0
LINE
  8
LC-006-012-----0
 62
     2
  6
DASHED
 10
504.755157
 20
152.435211
 11
540.755127
 21
152.435211
  0
LINE
  8
LC-006-012-----0
 62
     2
  6
DASHED
 10
504.755157
 20
141.435211
 11
540.755127
 21
141.435211
  0
LINE
  8
LC-004-006-----0
 62
     2
  6
DASHDOT
 10
499.111511
 20
71.935219
 11
543.255127
 21
71.935219
  0
LINE
  8
LC-006-012-----0
 62
     2
  6
DASHED
 10
504.755157
 20
66.435219
 11
540.755127
 21
66.435219
  0
LINE
  8
LC-006-012-----0
 62
     2
  6
DASHED
 10
504.755157
 20
77.435219
 11
540.755127
 21
77.435219
  0
LINE
  8
LC-006-012-----0
 62
     2
  6
DASHED
 10
504.755157
 20
134.435211
 11
554.755127
 21
134.435211
  0
LINE
  8
LC-006-012-----0
 62
     2
  6
DASHED
 10
504.755157
 20
84.435219
 11
554.755127
 21
84.435219
  0
LINE
  8
LC-004-006-----0
 62
     2
  6
DASHDOT
 10
510.879578
 20
102.534782
 11
534.313782
 21
102.534782
  0
LINE
  8
LC-004-006-----0
 62
     2
  6
DASHDOT
 10
522.755127
 20
87.437172
 11
522.755127
 21
117.322639
  0
LINE
  8
LC-003-002-----0
 62
     1
  6
CONTINUOUS
 10
520.155151
 20
102.901390
 11
525.355164
 21
102.901390
  0
LINE
  8
LC-003-002-----0
 62
     1
  6
CONTINUOUS
 10
520.155151
 20
95.973183
 11
525.355164
 21
95.973183
  0
LINE
  8
LC-003-002-----0
 62
     1
  6
CONTINUOUS
 10
520.155151
 20
100.001389
 11
525.355164
 21
100.001389
  0
LINE
  8
LC-003-002-----0
 62
     1
  6
CONTINUOUS
 10
520.155151
 20
102.901390
 11
520.155151
 21
100.001389
  0
LINE
  8
LC-003-002-----0
 62
     1
  6
CONTINUOUS
 10
518.155151
 20
99.437286
 11
520.155151
 21
102.901390
  0
LINE
  8
LC-003-002-----0
 62
     1
  6
CONTINUOUS
 10
527.355164
 20
99.437286
 11
525.355164
 21
102.901390
  0
LINE
  8
LC-003-002-----0
 62
     1
  6
CONTINUOUS
 10
518.155151
 20
99.437286
 11
520.155151
 21
95.973183
  0
LINE
  8
LC-003-002-----0
 62
     1
  6
CONTINUOUS
 10
527.355164
 20
99.437286
 11
525.355164
 21
95.973183
  0
LINE
  8
LC-003-002-----0
 62
     1
  6
CONTINUOUS
 10
525.355164
 20
102.901390
 11
525.355164
 21
100.001389
  0
LINE
  8
LC-003-002-----0
 62
     1
  6
CONTINUOUS
 10
518.992310
 20
97.987289
 11
520.155151
 21
100.001389
  0
LINE
  8
LC-003-002-----0
 62
     1
  6
CONTINUOUS
 10
526.518005
 20
97.987289
 11
525.355164
 21
100.001389
  0
ENDSEC
  0
EOF
