  0
SECTION
  2
HEADER
  9
$LIMMIN
 10
-127.578247
 20
-90.624847
  9
$LIMMAX
 10
28.369194
 20
77.636391
  9
$EXTMIN
 10
-127.578247
 20
-90.624847
  9
$EXTMAX
 10
28.369194
 20
77.636391
  0
ENDSEC
  0
SECTION
  2
TABLES
  0
TABLE
  2
LTYPE
 70
     3
  0
LTYPE
  2
CONTINUOUS
 70
    64
  3
Ausgezogene Linie
 72
    65
 73
     0
 40
0.0
  0
LTYPE
  2
DASHED
 70
    64
  3
__ __ __ __ __ __ __ __ __ __ __ __ __ __ __
 72
    65
 73
     2
 40
0.75
 49
0.5
 49
-0.25
  0
LTYPE
  2
DASHDOT
 70
    64
  3
__ . __ . __ . __ . __ . __ . __ . __ . __ . __
 72
    65
 73
     4
 40
1.0
 49
0.5
 49
-0.25
 49
0.0
 49
-0.25
  0
ENDTAB
  0
TABLE
  2
LAYER
 70
     4
  0
LAYER
  2
LC-003-002-----0
 70
    64
 62
     7
  6
CONTINUOUS
  0
LAYER
  2
LC-004-006-----0
 70
    64
 62
     7
  6
CONTINUOUS
  0
LAYER
  2
LC-006-012-----0
 70
    64
 62
     7
  6
CONTINUOUS
  0
LAYER
  2
LC-001-150-----0
 70
    64
 62
     7
  6
CONTINUOUS
  0
ENDTAB
  0
TABLE
  2
STYLE
 70
     1
  0
STYLE
  2
TXT8
 70
    64
 40
0.0
 41
1.0
 50
0.0
 71
     0
 42
3.500000
  3
TXT8
  4

  0
ENDTAB
  0
ENDSEC
  0
SECTION
  2
BLOCKS
  0
ENDSEC
  0
SECTION
  2
ENTITIES
  0
LINE
  8
LC-003-002-----0
 62
     1
  6
CONTINUOUS
 10
-124.235291
 20
31.721464
 11
-124.235291
 21
24.721464
  0
LINE
  8
LC-003-002-----0
 62
     1
  6
CONTINUOUS
 10
-124.235291
 20
24.721464
 11
-64.235291
 21
24.721464
  0
LINE
  8
LC-003-002-----0
 62
     1
  6
CONTINUOUS
 10
-123.235291
 20
32.721466
 11
-109.334961
 21
32.721466
  0
LINE
  8
LC-004-006-----0
 62
     2
  6
DASHDOT
 10
-71.735291
 20
22.030542
 11
-71.735291
 21
35.117260
  0
LINE
  8
LC-004-006-----0
 62
     2
  6
DASHDOT
 10
-117.585411
 20
49.721466
 11
-71.284889
 21
49.721466
  0
LINE
  8
LC-003-002-----0
 62
     1
  6
CONTINUOUS
 10
-64.235291
 20
31.721464
 11
-64.235291
 21
24.721464
  0
ARC
  8
LC-003-002-----0
 62
     1
  6
CONTINUOUS
 10
-123.235291
 20
31.721464
 40
1.000000
 50
90.000003
 51
180.000009
  0
ARC
  8
LC-003-002-----0
 62
     1
  6
CONTINUOUS
 10
-65.235291
 20
31.721464
 40
1.000000
 50
0.000000
 51
90.000003
  0
LINE
  8
LC-004-006-----0
 62
     2
  6
DASHDOT
 10
-94.235291
 20
22.030542
 11
-94.235291
 21
77.636391
  0
CIRCLE
  8
LC-003-002-----0
 62
     1
  6
CONTINUOUS
 10
-94.235291
 20
49.721466
 40
10.000000
  0
CIRCLE
  8
LC-003-002-----0
 62
     1
  6
CONTINUOUS
 10
-94.235291
 20
49.721466
 40
16.000000
  0
CIRCLE
  8
LC-003-002-----0
 62
     1
  6
CONTINUOUS
 10
-94.235291
 20
49.721466
 40
14.000000
  0
LINE
  8
LC-003-002-----0
 62
     1
  6
CONTINUOUS
 10
-29.460743
 20
24.721464
 11
12.539257
 21
24.721464
  0
LINE
  8
LC-003-002-----0
 62
     1
  6
CONTINUOUS
 10
-64.262894
 20
31.954779
 11
-69.925255
 21
55.554306
  0
LINE
  8
LC-003-002-----0
 62
     1
  6
CONTINUOUS
 10
-124.231491
 20
31.808620
 11
-120.994408
 21
68.808624
  0
LINE
  8
LC-003-002-----0
 62
     1
  6
CONTINUOUS
 10
-119.998215
 20
69.721466
 11
-109.565002
 21
69.721466
  0
ARC
  8
LC-003-002-----0
 62
     1
  6
CONTINUOUS
 10
-119.998215
 20
68.721466
 40
1.000000
 50
90.000003
 51
175.000006
  0
ARC
  8
LC-003-002-----0
 62
     1
  6
CONTINUOUS
 10
-109.565002
 20
70.721466
 40
1.000000
 50
269.999997
 51
306.128929
  0
ARC
  8
LC-003-002-----0
 62
     1
  6
CONTINUOUS
 10
-94.235291
 20
49.721466
 40
25.000000
 50
13.492236
 51
126.128923
  0
LINE
  8
LC-006-012-----0
 62
     2
  6
DASHED
 10
-69.485291
 20
24.721464
 11
-69.485291
 21
32.721466
  0
LINE
  8
LC-006-012-----0
 62
     2
  6
DASHED
 10
-73.985291
 20
24.721464
 11
-73.985291
 21
32.721466
  0
LINE
  8
LC-004-006-----0
 62
     2
  6
DASHDOT
 10
-116.735291
 20
22.030542
 11
-116.735291
 21
35.117260
  0
LINE
  8
LC-006-012-----0
 62
     2
  6
DASHED
 10
-118.985291
 20
24.721464
 11
-118.985291
 21
32.721466
  0
LINE
  8
LC-006-012-----0
 62
     2
  6
DASHED
 10
-114.485291
 20
24.721464
 11
-114.485291
 21
32.721466
  0
CIRCLE
  8
LC-003-002-----0
 62
     1
  6
CONTINUOUS
 10
-94.235291
 20
49.721466
 40
21.000000
  0
ARC
  8
LC-003-002-----0
 62
     1
  6
CONTINUOUS
 10
-109.334961
 20
33.721466
 40
1.000000
 50
269.999997
 51
46.658241
  0
ARC
  8
LC-003-002-----0
 62
     1
  6
CONTINUOUS
 10
-79.135628
 20
33.721466
 40
1.000000
 50
133.341753
 51
269.999997
  0
LINE
  8
LC-003-002-----0
 62
     1
  6
CONTINUOUS
 10
-79.135628
 20
32.721466
 11
-65.235291
 21
32.721466
  0
LINE
  8
LC-003-002-----0
 62
     1
  6
CONTINUOUS
 10
12.539257
 20
24.721464
 11
12.539257
 21
31.721464
  0
LINE
  8
LC-003-002-----0
 62
     1
  6
CONTINUOUS
 10
-28.460743
 20
32.721466
 11
11.539257
 21
32.721466
  0
LINE
  8
LC-003-002-----0
 62
     1
  6
CONTINUOUS
 10
-13.460743
 20
74.721466
 11
-3.460743
 21
74.721466
  0
LINE
  8
LC-003-002-----0
 62
     1
  6
CONTINUOUS
 10
-29.460743
 20
24.721464
 11
-29.460743
 21
31.721464
  0
LINE
  8
LC-004-006-----0
 62
     2
  6
DASHDOT
 10
-8.460743
 20
22.030542
 11
-8.460743
 21
77.636391
  0
ARC
  8
LC-003-002-----0
 62
     1
  6
CONTINUOUS
 10
-28.460743
 20
31.721464
 40
1.000000
 50
90.000003
 51
180.000009
  0
ARC
  8
LC-003-002-----0
 62
     1
  6
CONTINUOUS
 10
11.539257
 20
31.721464
 40
1.000000
 50
0.000000
 51
90.000003
  0
LINE
  8
LC-004-006-----0
 62
     2
  6
DASHDOT
 10
-24.460743
 20
22.030542
 11
-24.460743
 21
35.117260
  0
LINE
  8
LC-004-006-----0
 62
     2
  6
DASHDOT
 10
7.539257
 20
22.030542
 11
7.539257
 21
35.117260
  0
LINE
  8
LC-006-012-----0
 62
     2
  6
DASHED
 10
9.789257
 20
24.721464
 11
9.789257
 21
32.721466
  0
LINE
  8
LC-006-012-----0
 62
     2
  6
DASHED
 10
5.289257
 20
24.721464
 11
5.289257
 21
32.721466
  0
LINE
  8
LC-003-002-----0
 62
     1
  6
CONTINUOUS
 10
-24.060743
 20
32.721466
 11
-24.060743
 21
70.044708
  0
LINE
  8
LC-006-012-----0
 62
     2
  6
DASHED
 10
-26.710743
 20
24.721464
 11
-26.710743
 21
32.721466
  0
LINE
  8
LC-006-012-----0
 62
     2
  6
DASHED
 10
-22.210743
 20
24.721464
 11
-22.210743
 21
32.721466
  0
LINE
  8
LC-003-002-----0
 62
     1
  6
CONTINUOUS
 10
-24.060743
 20
70.044708
 11
-22.460743
 21
70.044708
  0
LINE
  8
LC-003-002-----0
 62
     1
  6
CONTINUOUS
 10
5.539257
 20
32.721466
 11
5.539257
 21
69.721466
  0
LINE
  8
LC-003-002-----0
 62
     1
  6
CONTINUOUS
 10
-22.460743
 20
32.721466
 11
-22.460743
 21
69.721466
  0
ARC
  8
LC-003-002-----0
 62
     1
  6
CONTINUOUS
 10
-13.460743
 20
73.721466
 40
1.000000
 50
90.000003
 51
180.000009
  0
ARC
  8
LC-003-002-----0
 62
     1
  6
CONTINUOUS
 10
-3.460743
 20
73.721466
 40
1.000000
 50
0.000000
 51
90.000003
  0
LINE
  8
LC-003-002-----0
 62
     1
  6
CONTINUOUS
 10
-2.460743
 20
33.721466
 11
-2.460743
 21
73.721466
  0
LINE
  8
LC-003-002-----0
 62
     1
  6
CONTINUOUS
 10
-14.460743
 20
33.721466
 11
-14.460743
 21
73.721466
  0
ARC
  8
LC-003-002-----0
 62
     1
  6
CONTINUOUS
 10
-94.235291
 20
48.821465
 40
17.850000
 50
114.491975
 51
65.508023
  0
LINE
  8
LC-003-002-----0
 62
     1
  6
CONTINUOUS
 10
-21.460743
 20
70.721466
 11
-15.460743
 21
70.721466
  0
ARC
  8
LC-003-002-----0
 62
     1
  6
CONTINUOUS
 10
-21.460743
 20
69.721466
 40
1.000000
 50
90.000003
 51
180.000009
  0
ARC
  8
LC-003-002-----0
 62
     1
  6
CONTINUOUS
 10
4.539257
 20
69.721466
 40
1.000000
 50
0.000000
 51
90.000003
  0
LINE
  8
LC-003-002-----0
 62
     1
  6
CONTINUOUS
 10
-1.460743
 20
70.721466
 11
4.539257
 21
70.721466
  0
ARC
  8
LC-003-002-----0
 62
     1
  6
CONTINUOUS
 10
-15.460743
 20
33.721466
 40
1.000000
 50
269.999997
 51
0.000000
  0
ARC
  8
LC-003-002-----0
 62
     1
  6
CONTINUOUS
 10
-15.460743
 20
71.721466
 40
1.000000
 50
269.999997
 51
0.000000
  0
ARC
  8
LC-003-002-----0
 62
     1
  6
CONTINUOUS
 10
-1.460743
 20
71.721466
 40
1.000000
 50
180.000009
 51
269.999997
  0
ARC
  8
LC-003-002-----0
 62
     1
  6
CONTINUOUS
 10
-1.460743
 20
33.721466
 40
1.000000
 50
180.000009
 51
269.999997
  0
LINE
  8
LC-003-002-----0
 62
     1
  6
CONTINUOUS
 10
-101.635292
 20
65.065308
 11
-100.814529
 21
67.643692
  0
LINE
  8
LC-003-002-----0
 62
     1
  6
CONTINUOUS
 10
-98.778290
 20
69.417320
 11
-95.135292
 21
70.044708
  0
LINE
  8
LC-003-002-----0
 62
     1
  6
CONTINUOUS
 10
-95.135292
 20
65.696129
 11
-95.135292
 21
70.044708
  0
LINE
  8
LC-003-002-----0
 62
     1
  6
CONTINUOUS
 10
-93.335297
 20
65.696129
 11
-93.335297
 21
70.044708
  0
LINE
  8
LC-003-002-----0
 62
     1
  6
CONTINUOUS
 10
-93.335297
 20
70.044708
 11
-89.692299
 21
69.417320
  0
LINE
  8
LC-003-002-----0
 62
     1
  6
CONTINUOUS
 10
-86.835297
 20
65.065308
 11
-87.656059
 21
67.643692
  0
CIRCLE
  8
LC-003-002-----0
 62
     1
  6
CONTINUOUS
 10
-90.835297
 20
67.444710
 40
1.250000
  0
LINE
  8
LC-003-002-----0
 62
     1
  6
CONTINUOUS
 10
-13.460743
 20
69.721466
 11
-3.460743
 21
69.721466
  0
CIRCLE
  8
LC-003-002-----0
 62
     1
  6
CONTINUOUS
 10
-97.635292
 20
67.444710
 40
1.250000
  0
ARC
  8
LC-003-002-----0
 62
     1
  6
CONTINUOUS
 10
-98.337029
 20
66.855042
 40
2.600000
 50
99.771442
 51
162.342409
  0
ARC
  8
LC-003-002-----0
 62
     1
  6
CONTINUOUS
 10
-90.133568
 20
66.855042
 40
2.600000
 50
17.657591
 51
80.228563
  0
ARC
  8
LC-003-002-----0
 62
     1
  6
CONTINUOUS
 10
-13.460743
 20
68.721466
 40
1.000000
 50
90.000003
 51
180.000009
  0
ARC
  8
LC-003-002-----0
 62
     1
  6
CONTINUOUS
 10
-3.460743
 20
68.721466
 40
1.000000
 50
0.000000
 51
90.000003
  0
LINE
  8
LC-003-002-----0
 62
     1
  6
CONTINUOUS
 10
7.139257
 20
32.721466
 11
7.139257
 21
70.044708
  0
LINE
  8
LC-003-002-----0
 62
     1
  6
CONTINUOUS
 10
7.139257
 20
70.044708
 11
5.539257
 21
70.044708
  0
LINE
  8
LC-003-002-----0
 62
     1
  6
CONTINUOUS
 10
-29.960743
 20
65.721466
 11
-24.060743
 21
65.721466
  0
LINE
  8
LC-003-002-----0
 62
     1
  6
CONTINUOUS
 10
-29.960743
 20
33.721466
 11
-24.060743
 21
33.721466
  0
LINE
  8
LC-003-002-----0
 62
     1
  6
CONTINUOUS
 10
14.039257
 20
34.721466
 11
14.039257
 21
64.721466
  0
LINE
  8
LC-003-002-----0
 62
     1
  6
CONTINUOUS
 10
-30.960743
 20
34.721466
 11
-30.960743
 21
64.721466
  0
ARC
  8
LC-003-002-----0
 62
     1
  6
CONTINUOUS
 10
-29.960743
 20
64.721466
 40
1.000000
 50
90.000003
 51
180.000009
  0
ARC
  8
LC-003-002-----0
 62
     1
  6
CONTINUOUS
 10
-29.960743
 20
34.721466
 40
1.000000
 50
180.000009
 51
269.999997
  0
ARC
  8
LC-003-002-----0
 62
     1
  6
CONTINUOUS
 10
13.039257
 20
34.721466
 40
1.000000
 50
269.999997
 51
0.000000
  0
ARC
  8
LC-003-002-----0
 62
     1
  6
CONTINUOUS
 10
13.039257
 20
64.721466
 40
1.000000
 50
0.000000
 51
90.000003
  0
LINE
  8
LC-006-012-----0
 62
     2
  6
DASHED
 10
-24.060743
 20
65.721466
 11
7.139257
 21
65.721466
  0
LINE
  8
LC-006-012-----0
 62
     2
  6
DASHED
 10
-24.060743
 20
33.721466
 11
7.139257
 21
33.721466
  0
LINE
  8
LC-003-002-----0
 62
     1
  6
CONTINUOUS
 10
7.139257
 20
33.721466
 11
13.039257
 21
33.721466
  0
LINE
  8
LC-003-002-----0
 62
     1
  6
CONTINUOUS
 10
7.139257
 20
65.721466
 11
13.039257
 21
65.721466
  0
LINE
  8
LC-001-150-----0
 62
     2
  6
CONTINUOUS
 10
25.192741
 20
39.721466
 11
25.630243
 21
44.977196
  0
LINE
  8
LC-001-150-----0
 62
     2
  6
CONTINUOUS
 10
25.630243
 20
44.977196
 11
24.663555
 21
52.714153
  0
LINE
  8
LC-001-150-----0
 62
     2
  6
CONTINUOUS
 10
24.663555
 20
52.714153
 11
24.773808
 21
59.721466
  0
LINE
  8
LC-001-150-----0
 62
     2
  6
CONTINUOUS
 10
-38.408451
 20
39.721466
 11
-37.970570
 21
44.739288
  0
LINE
  8
LC-001-150-----0
 62
     2
  6
CONTINUOUS
 10
-37.970570
 20
44.739288
 11
-39.259487
 21
53.308922
  0
LINE
  8
LC-001-150-----0
 62
     2
  6
CONTINUOUS
 10
-39.259487
 20
53.308922
 11
-39.172741
 21
59.721466
  0
LINE
  8
LC-004-006-----0
 62
     2
  6
DASHDOT
 10
-41.837322
 20
49.721466
 11
28.369194
 21
49.721466
  0
LINE
  8
LC-003-002-----0
 62
     1
  6
CONTINUOUS
 10
-39.172741
 20
59.721466
 11
-30.960743
 21
59.721466
  0
LINE
  8
LC-006-012-----0
 62
     2
  6
DASHED
 10
-30.960743
 20
59.721466
 11
14.039257
 21
59.721466
  0
LINE
  8
LC-003-002-----0
 62
     1
  6
CONTINUOUS
 10
-38.408451
 20
39.721466
 11
-30.960741
 21
39.721466
  0
LINE
  8
LC-006-012-----0
 62
     2
  6
DASHED
 10
-30.960743
 20
39.721466
 11
14.039257
 21
39.721466
  0
LINE
  8
LC-003-002-----0
 62
     1
  6
CONTINUOUS
 10
14.039257
 20
39.721466
 11
25.192741
 21
39.721466
  0
LINE
  8
LC-003-002-----0
 62
     1
  6
CONTINUOUS
 10
14.039257
 20
59.721466
 11
24.773808
 21
59.721466
  0
LINE
  8
LC-003-002-----0
 62
     1
  6
CONTINUOUS
 10
-124.235291
 20
-33.584690
 11
-124.235291
 21
-73.584686
  0
LINE
  8
LC-003-002-----0
 62
     1
  6
CONTINUOUS
 10
-123.235291
 20
-74.584686
 11
-110.235291
 21
-74.584686
  0
LINE
  8
LC-003-002-----0
 62
     1
  6
CONTINUOUS
 10
-64.235291
 20
-33.584690
 11
-64.235291
 21
-73.584686
  0
LINE
  8
LC-003-002-----0
 62
     1
  6
CONTINUOUS
 10
-123.235291
 20
-32.584690
 11
-110.235291
 21
-32.584690
  0
ARC
  8
LC-003-002-----0
 62
     1
  6
CONTINUOUS
 10
-123.235291
 20
-33.584690
 40
1.000000
 50
90.000003
 51
180.000009
  0
ARC
  8
LC-003-002-----0
 62
     1
  6
CONTINUOUS
 10
-123.235291
 20
-73.584686
 40
1.000000
 50
180.000009
 51
269.999997
  0
ARC
  8
LC-003-002-----0
 62
     1
  6
CONTINUOUS
 10
-65.235291
 20
-73.584686
 40
1.000000
 50
269.999997
 51
0.000000
  0
ARC
  8
LC-003-002-----0
 62
     1
  6
CONTINUOUS
 10
-65.235291
 20
-33.584690
 40
1.000000
 50
0.000000
 51
90.000003
  0
LINE
  8
LC-004-006-----0
 62
     2
  6
DASHDOT
 10
-127.578247
 20
-53.584690
 11
-60.420483
 21
-53.584690
  0
LINE
  8
LC-004-006-----0
 62
     2
  6
DASHDOT
 10
-120.946487
 20
-37.584690
 11
-112.839516
 21
-37.584690
  0
LINE
  8
LC-004-006-----0
 62
     2
  6
DASHDOT
 10
-116.735291
 20
-33.770130
 11
-116.735291
 21
-41.495564
  0
CIRCLE
  8
LC-003-002-----0
 62
     1
  6
CONTINUOUS
 10
-116.735291
 20
-37.584690
 40
2.250000
  0
LINE
  8
LC-004-006-----0
 62
     2
  6
DASHDOT
 10
-94.235291
 20
-18.401789
 11
-94.235291
 21
-90.624847
  0
LINE
  8
LC-004-006-----0
 62
     2
  6
DASHDOT
 10
-67.524101
 20
-37.584690
 11
-75.631073
 21
-37.584690
  0
LINE
  8
LC-004-006-----0
 62
     2
  6
DASHDOT
 10
-71.735291
 20
-33.770130
 11
-71.735291
 21
-41.495564
  0
CIRCLE
  8
LC-003-002-----0
 62
     1
  6
CONTINUOUS
 10
-71.735291
 20
-37.584690
 40
2.250000
  0
LINE
  8
LC-004-006-----0
 62
     2
  6
DASHDOT
 10
-120.946487
 20
-69.584686
 11
-112.839516
 21
-69.584686
  0
LINE
  8
LC-004-006-----0
 62
     2
  6
DASHDOT
 10
-116.735291
 20
-73.399246
 11
-116.735291
 21
-65.673820
  0
CIRCLE
  8
LC-003-002-----0
 62
     1
  6
CONTINUOUS
 10
-116.735291
 20
-69.584686
 40
2.250000
  0
LINE
  8
LC-004-006-----0
 62
     2
  6
DASHDOT
 10
-67.524101
 20
-69.584686
 11
-75.631073
 21
-69.584686
  0
LINE
  8
LC-004-006-----0
 62
     2
  6
DASHDOT
 10
-71.735291
 20
-73.399246
 11
-71.735291
 21
-65.673820
  0
CIRCLE
  8
LC-003-002-----0
 62
     1
  6
CONTINUOUS
 10
-71.735291
 20
-69.584686
 40
2.250000
  0
LINE
  8
LC-003-002-----0
 62
     1
  6
CONTINUOUS
 10
-124.235291
 20
-47.584690
 11
-64.235291
 21
-47.584690
  0
LINE
  8
LC-003-002-----0
 62
     1
  6
CONTINUOUS
 10
-124.235291
 20
-59.584690
 11
-64.235291
 21
-59.584690
  0
LINE
  8
LC-003-002-----0
 62
     1
  6
CONTINUOUS
 10
-120.994408
 20
-48.584690
 11
-120.994408
 21
-58.584690
  0
ARC
  8
LC-003-002-----0
 62
     1
  6
CONTINUOUS
 10
-119.994408
 20
-58.584690
 40
1.000000
 50
180.000009
 51
269.999997
  0
ARC
  8
LC-003-002-----0
 62
     1
  6
CONTINUOUS
 10
-119.994408
 20
-48.584690
 40
1.000000
 50
90.000003
 51
180.000009
  0
LINE
  8
LC-003-002-----0
 62
     1
  6
CONTINUOUS
 10
-115.235291
 20
-40.584690
 11
-115.235291
 21
-46.584690
  0
LINE
  8
LC-003-002-----0
 62
     1
  6
CONTINUOUS
 10
-73.235291
 20
-40.584690
 11
-73.235291
 21
-46.584690
  0
LINE
  8
LC-003-002-----0
 62
     1
  6
CONTINUOUS
 10
-114.235291
 20
-39.584690
 11
-74.235291
 21
-39.584690
  0
LINE
  8
LC-003-002-----0
 62
     1
  6
CONTINUOUS
 10
-114.235291
 20
-67.584686
 11
-74.235291
 21
-67.584686
  0
ARC
  8
LC-003-002-----0
 62
     1
  6
CONTINUOUS
 10
-114.235291
 20
-40.584690
 40
1.000000
 50
90.000003
 51
180.000009
  0
ARC
  8
LC-003-002-----0
 62
     1
  6
CONTINUOUS
 10
-114.235291
 20
-66.584686
 40
1.000000
 50
180.000009
 51
269.999997
  0
ARC
  8
LC-003-002-----0
 62
     1
  6
CONTINUOUS
 10
-74.235291
 20
-66.584686
 40
1.000000
 50
269.999997
 51
0.000000
  0
ARC
  8
LC-003-002-----0
 62
     1
  6
CONTINUOUS
 10
-74.235291
 20
-40.584690
 40
1.000000
 50
0.000000
 51
90.000003
  0
LINE
  8
LC-003-002-----0
 62
     1
  6
CONTINUOUS
 10
-115.235291
 20
-60.584690
 11
-115.235291
 21
-66.584686
  0
LINE
  8
LC-003-002-----0
 62
     1
  6
CONTINUOUS
 10
-73.235291
 20
-60.584690
 11
-73.235291
 21
-66.584686
  0
LINE
  8
LC-003-002-----0
 62
     1
  6
CONTINUOUS
 10
-112.062592
 20
-37.984692
 11
-76.407997
 21
-37.984692
  0
LINE
  8
LC-003-002-----0
 62
     1
  6
CONTINUOUS
 10
-76.407997
 20
-37.984692
 11
-76.407997
 21
-39.584690
  0
LINE
  8
LC-003-002-----0
 62
     1
  6
CONTINUOUS
 10
-112.062592
 20
-37.984692
 11
-112.062592
 21
-39.584690
  0
LINE
  8
LC-003-002-----0
 62
     1
  6
CONTINUOUS
 10
-95.135292
 20
-37.984692
 11
-95.135292
 21
-39.584690
  0
LINE
  8
LC-003-002-----0
 62
     1
  6
CONTINUOUS
 10
-93.335297
 20
-37.984692
 11
-93.335297
 21
-39.584690
  0
LINE
  8
LC-003-002-----0
 62
     1
  6
CONTINUOUS
 10
-112.062592
 20
-69.184692
 11
-76.407997
 21
-69.184692
  0
LINE
  8
LC-003-002-----0
 62
     1
  6
CONTINUOUS
 10
-76.407997
 20
-69.184692
 11
-76.407997
 21
-67.584686
  0
LINE
  8
LC-003-002-----0
 62
     1
  6
CONTINUOUS
 10
-112.062592
 20
-69.184692
 11
-112.062592
 21
-67.584686
  0
LINE
  8
LC-003-002-----0
 62
     1
  6
CONTINUOUS
 10
-95.135292
 20
-69.184692
 11
-95.135292
 21
-67.584686
  0
LINE
  8
LC-003-002-----0
 62
     1
  6
CONTINUOUS
 10
-93.335297
 20
-69.184692
 11
-93.335297
 21
-67.584686
  0
LINE
  8
LC-003-002-----0
 62
     1
  6
CONTINUOUS
 10
-110.235291
 20
-32.084690
 11
-110.235291
 21
-37.984692
  0
LINE
  8
LC-003-002-----0
 62
     1
  6
CONTINUOUS
 10
-78.235291
 20
-32.084690
 11
-78.235291
 21
-37.984692
  0
LINE
  8
LC-003-002-----0
 62
     1
  6
CONTINUOUS
 10
-109.235291
 20
-31.084690
 11
-79.235291
 21
-31.084690
  0
LINE
  8
LC-003-002-----0
 62
     1
  6
CONTINUOUS
 10
-109.235291
 20
-76.084686
 11
-79.235291
 21
-76.084686
  0
ARC
  8
LC-003-002-----0
 62
     1
  6
CONTINUOUS
 10
-109.235291
 20
-75.084686
 40
1.000000
 50
180.000009
 51
269.999997
  0
ARC
  8
LC-003-002-----0
 62
     1
  6
CONTINUOUS
 10
-79.235291
 20
-75.084686
 40
1.000000
 50
269.999997
 51
0.000000
  0
ARC
  8
LC-003-002-----0
 62
     1
  6
CONTINUOUS
 10
-79.235291
 20
-32.084690
 40
1.000000
 50
0.000000
 51
90.000003
  0
ARC
  8
LC-003-002-----0
 62
     1
  6
CONTINUOUS
 10
-109.235291
 20
-32.084690
 40
1.000000
 50
90.000003
 51
180.000009
  0
LINE
  8
LC-006-012-----0
 62
     2
  6
DASHED
 10
-110.235291
 20
-37.984692
 11
-110.235291
 21
-69.184692
  0
LINE
  8
LC-003-002-----0
 62
     1
  6
CONTINUOUS
 10
-110.235291
 20
-69.184692
 11
-110.235291
 21
-75.084686
  0
LINE
  8
LC-006-012-----0
 62
     2
  6
DASHED
 10
-78.235291
 20
-37.984692
 11
-78.235291
 21
-69.184692
  0
LINE
  8
LC-003-002-----0
 62
     1
  6
CONTINUOUS
 10
-78.235291
 20
-69.184692
 11
-78.235291
 21
-75.084686
  0
LINE
  8
LC-006-012-----0
 62
     2
  6
DASHED
 10
-110.235291
 20
-32.584690
 11
-78.235291
 21
-32.584690
  0
LINE
  8
LC-003-002-----0
 62
     1
  6
CONTINUOUS
 10
-78.235291
 20
-32.584690
 11
-65.235291
 21
-32.584690
  0
LINE
  8
LC-006-012-----0
 62
     2
  6
DASHED
 10
-110.235291
 20
-74.584686
 11
-78.235291
 21
-74.584686
  0
LINE
  8
LC-003-002-----0
 62
     1
  6
CONTINUOUS
 10
-78.235291
 20
-74.584686
 11
-65.235291
 21
-74.584686
  0
LINE
  8
LC-001-150-----0
 62
     2
  6
CONTINUOUS
 10
-104.235291
 20
-20.273500
 11
-99.833580
 21
-21.125481
  0
LINE
  8
LC-001-150-----0
 62
     2
  6
CONTINUOUS
 10
-99.833580
 20
-21.125481
 11
-89.443626
 21
-19.881844
  0
LINE
  8
LC-001-150-----0
 62
     2
  6
CONTINUOUS
 10
-89.443626
 20
-19.881844
 11
-84.235291
 21
-20.000444
  0
LINE
  8
LC-001-150-----0
 62
     2
  6
CONTINUOUS
 10
-104.235291
 20
-88.188049
 11
-99.096649
 21
-87.745705
  0
LINE
  8
LC-001-150-----0
 62
     2
  6
CONTINUOUS
 10
-99.096649
 20
-87.745705
 11
-89.127800
 21
-88.600700
  0
LINE
  8
LC-001-150-----0
 62
     2
  6
CONTINUOUS
 10
-89.127800
 20
-88.600700
 11
-84.235291
 21
-87.644417
  0
LINE
  8
LC-003-002-----0
 62
     1
  6
CONTINUOUS
 10
-104.235291
 20
-76.084686
 11
-104.235291
 21
-88.188049
  0
LINE
  8
LC-003-002-----0
 62
     1
  6
CONTINUOUS
 10
-84.235291
 20
-76.084686
 11
-84.235291
 21
-87.644417
  0
LINE
  8
LC-003-002-----0
 62
     1
  6
CONTINUOUS
 10
-84.235291
 20
-20.000444
 11
-84.235291
 21
-31.084690
  0
LINE
  8
LC-006-012-----0
 62
     2
  6
DASHED
 10
-84.235291
 20
-31.084690
 11
-84.235291
 21
-76.084686
  0
LINE
  8
LC-003-002-----0
 62
     1
  6
CONTINUOUS
 10
-104.235291
 20
-20.273500
 11
-104.235291
 21
-31.084690
  0
LINE
  8
LC-006-012-----0
 62
     2
  6
DASHED
 10
-104.235291
 20
-31.084690
 11
-104.235291
 21
-76.084686
  0
LINE
  8
LC-003-002-----0
 62
     1
  6
CONTINUOUS
 10
-24.060743
 20
65.065308
 11
-22.460743
 21
65.065308
  0
LINE
  8
LC-003-002-----0
 62
     1
  6
CONTINUOUS
 10
5.539257
 20
65.065308
 11
7.139257
 21
65.065308
  0
ARC
  8
LC-003-002-----0
 62
     1
  6
CONTINUOUS
 10
-116.235291
 20
-46.584690
 40
1.000000
 50
269.999997
 51
0.000000
  0
ARC
  8
LC-003-002-----0
 62
     1
  6
CONTINUOUS
 10
-116.235291
 20
-60.584690
 40
1.000000
 50
0.000000
 51
90.000003
  0
ARC
  8
LC-003-002-----0
 62
     1
  6
CONTINUOUS
 10
-72.235291
 20
-46.584690
 40
1.000000
 50
180.000009
 51
269.999997
  0
ARC
  8
LC-003-002-----0
 62
     1
  6
CONTINUOUS
 10
-72.235291
 20
-60.584690
 40
1.000000
 50
90.000003
 51
180.000009
  0
LINE
  8
LC-003-002-----0
 62
     1
  6
CONTINUOUS
 10
-108.975403
 20
-48.584690
 11
-108.975403
 21
-58.584690
  0
ARC
  8
LC-003-002-----0
 62
     1
  6
CONTINUOUS
 10
-107.975403
 20
-48.584690
 40
1.000000
 50
90.000003
 51
180.000009
  0
ARC
  8
LC-003-002-----0
 62
     1
  6
CONTINUOUS
 10
-107.975403
 20
-58.584690
 40
1.000000
 50
180.000009
 51
269.999997
  0
ENDSEC
  0
EOF
