  0
SECTION
  2
HEADER
  9
$LIMMIN
 10
83.174049
 20
465.892975
  9
$LIMMAX
 10
305.574463
 20
668.716980
  9
$EXTMIN
 10
83.174049
 20
465.892975
  9
$EXTMAX
 10
305.574463
 20
668.716980
  0
ENDSEC
  0
SECTION
  2
TABLES
  0
TABLE
  2
LTYPE
 70
     3
  0
LTYPE
  2
CONTINUOUS
 70
    64
  3
Ausgezogene Linie
 72
    65
 73
     0
 40
0.0
  0
LTYPE
  2
DASHED
 70
    64
  3
__ __ __ __ __ __ __ __ __ __ __ __ __ __ __
 72
    65
 73
     2
 40
0.75
 49
0.5
 49
-0.25
  0
LTYPE
  2
DASHDOT
 70
    64
  3
__ . __ . __ . __ . __ . __ . __ . __ . __ . __
 72
    65
 73
     4
 40
1.0
 49
0.5
 49
-0.25
 49
0.0
 49
-0.25
  0
ENDTAB
  0
TABLE
  2
LAYER
 70
     4
  0
LAYER
  2
LC-003-002-----0
 70
    64
 62
     7
  6
CONTINUOUS
  0
LAYER
  2
LC-004-006-----0
 70
    64
 62
     7
  6
CONTINUOUS
  0
LAYER
  2
LC-006-012-----0
 70
    64
 62
     7
  6
CONTINUOUS
  0
LAYER
  2
LC-001-150-----0
 70
    64
 62
     7
  6
CONTINUOUS
  0
ENDTAB
  0
TABLE
  2
STYLE
 70
     1
  0
STYLE
  2
TXT8
 70
    64
 40
0.0
 41
1.0
 50
0.0
 71
     0
 42
3.500000
  3
TXT8
  4

  0
ENDTAB
  0
ENDSEC
  0
SECTION
  2
BLOCKS
  0
ENDSEC
  0
SECTION
  2
ENTITIES
  0
LINE
  8
LC-003-002-----0
 62
     1
  6
CONTINUOUS
 10
87.528107
 20
612.268433
 11
87.528107
 21
604.768433
  0
LINE
  8
LC-003-002-----0
 62
     1
  6
CONTINUOUS
 10
87.528107
 20
604.768433
 11
161.528107
 21
604.768433
  0
LINE
  8
LC-003-002-----0
 62
     1
  6
CONTINUOUS
 10
89.028107
 20
613.768433
 11
105.137383
 21
613.768433
  0
LINE
  8
LC-003-002-----0
 62
     1
  6
CONTINUOUS
 10
161.528107
 20
612.268433
 11
161.528107
 21
604.768433
  0
ARC
  8
LC-003-002-----0
 62
     1
  6
CONTINUOUS
 10
89.028107
 20
612.268433
 40
1.500000
 50
90.000003
 51
180.000009
  0
ARC
  8
LC-003-002-----0
 62
     1
  6
CONTINUOUS
 10
160.028107
 20
612.268433
 40
1.500000
 50
0.000000
 51
90.000003
  0
LINE
  8
LC-004-006-----0
 62
     2
  6
DASHDOT
 10
124.528107
 20
600.194092
 11
124.528107
 21
668.716980
  0
LINE
  8
LC-004-006-----0
 62
     2
  6
DASHDOT
 10
154.528107
 20
602.101440
 11
154.528107
 21
617.098022
  0
LINE
  8
LC-004-006-----0
 62
     2
  6
DASHDOT
 10
95.580437
 20
634.768433
 11
153.247910
 21
634.768433
  0
CIRCLE
  8
LC-003-002-----0
 62
     1
  6
CONTINUOUS
 10
124.528107
 20
634.768433
 40
12.500000
  0
CIRCLE
  8
LC-003-002-----0
 62
     1
  6
CONTINUOUS
 10
124.528107
 20
634.768433
 40
20.000000
  0
CIRCLE
  8
LC-003-002-----0
 62
     1
  6
CONTINUOUS
 10
124.528107
 20
634.768433
 40
18.000000
  0
LINE
  8
LC-003-002-----0
 62
     1
  6
CONTINUOUS
 10
161.477402
 20
612.655090
 11
153.514160
 21
642.502014
  0
LINE
  8
LC-003-002-----0
 62
     1
  6
CONTINUOUS
 10
87.533813
 20
612.399170
 11
91.470802
 21
657.399170
  0
LINE
  8
LC-003-002-----0
 62
     1
  6
CONTINUOUS
 10
92.965096
 20
658.768433
 11
106.034859
 21
658.768433
  0
ARC
  8
LC-003-002-----0
 62
     1
  6
CONTINUOUS
 10
92.965096
 20
657.268433
 40
1.500000
 50
90.000003
 51
175.000006
  0
ARC
  8
LC-003-002-----0
 62
     1
  6
CONTINUOUS
 10
106.034859
 20
660.268433
 40
1.500000
 50
269.999997
 51
305.950568
  0
ARC
  8
LC-003-002-----0
 62
     1
  6
CONTINUOUS
 10
124.528107
 20
634.768433
 40
30.000000
 50
14.938708
 51
125.950573
  0
LINE
  8
LC-006-012-----0
 62
     2
  6
DASHED
 10
157.278107
 20
604.768433
 11
157.278107
 21
613.768433
  0
LINE
  8
LC-006-012-----0
 62
     2
  6
DASHED
 10
151.778107
 20
604.768433
 11
151.778107
 21
613.768433
  0
LINE
  8
LC-004-006-----0
 62
     2
  6
DASHDOT
 10
94.528107
 20
602.101440
 11
94.528107
 21
617.098022
  0
LINE
  8
LC-006-012-----0
 62
     2
  6
DASHED
 10
91.778107
 20
604.768433
 11
91.778107
 21
613.768433
  0
LINE
  8
LC-006-012-----0
 62
     2
  6
DASHED
 10
97.278107
 20
604.768433
 11
97.278107
 21
613.768433
  0
LINE
  8
LC-003-002-----0
 62
     1
  6
CONTINUOUS
 10
143.918823
 20
613.768433
 11
160.028107
 21
613.768433
  0
LINE
  8
LC-003-002-----0
 62
     1
  6
CONTINUOUS
 10
123.428101
 20
654.738159
 11
123.428101
 21
659.486145
  0
LINE
  8
LC-003-002-----0
 62
     1
  6
CONTINUOUS
 10
125.628105
 20
654.738159
 11
125.628105
 21
659.486145
  0
CIRCLE
  8
LC-003-002-----0
 62
     1
  6
CONTINUOUS
 10
124.528107
 20
634.768433
 40
26.000000
  0
ARC
  8
LC-003-002-----0
 62
     1
  6
CONTINUOUS
 10
105.137383
 20
615.268433
 40
1.500000
 50
269.999997
 51
45.160996
  0
ARC
  8
LC-003-002-----0
 62
     1
  6
CONTINUOUS
 10
143.918823
 20
615.268433
 40
1.500000
 50
134.838999
 51
269.999997
  0
LINE
  8
LC-003-002-----0
 62
     1
  6
CONTINUOUS
 10
228.684204
 20
604.768433
 11
282.684204
 21
604.768433
  0
LINE
  8
LC-003-002-----0
 62
     1
  6
CONTINUOUS
 10
282.684204
 20
604.768433
 11
282.684204
 21
612.268433
  0
LINE
  8
LC-003-002-----0
 62
     1
  6
CONTINUOUS
 10
249.184204
 20
664.768433
 11
262.184204
 21
664.768433
  0
LINE
  8
LC-004-006-----0
 62
     2
  6
DASHDOT
 10
255.684204
 20
600.194092
 11
255.684204
 21
668.716980
  0
LINE
  8
LC-003-002-----0
 62
     1
  6
CONTINUOUS
 10
228.684204
 20
604.768433
 11
228.684204
 21
612.268433
  0
LINE
  8
LC-003-002-----0
 62
     1
  6
CONTINUOUS
 10
230.184204
 20
613.768433
 11
281.184204
 21
613.768433
  0
ARC
  8
LC-003-002-----0
 62
     1
  6
CONTINUOUS
 10
230.184204
 20
612.268433
 40
1.500000
 50
90.000003
 51
180.000009
  0
ARC
  8
LC-003-002-----0
 62
     1
  6
CONTINUOUS
 10
281.184204
 20
612.268433
 40
1.500000
 50
0.000000
 51
90.000003
  0
LINE
  8
LC-003-002-----0
 62
     1
  6
CONTINUOUS
 10
237.184204
 20
660.768433
 11
246.684204
 21
660.768433
  0
LINE
  8
LC-003-002-----0
 62
     1
  6
CONTINUOUS
 10
275.684204
 20
615.268433
 11
275.684204
 21
659.268433
  0
LINE
  8
LC-003-002-----0
 62
     1
  6
CONTINUOUS
 10
235.684204
 20
615.268433
 11
235.684204
 21
659.268433
  0
ARC
  8
LC-003-002-----0
 62
     1
  6
CONTINUOUS
 10
237.184204
 20
659.268433
 40
1.500000
 50
90.000003
 51
180.000009
  0
ARC
  8
LC-003-002-----0
 62
     1
  6
CONTINUOUS
 10
274.184204
 20
659.268433
 40
1.500000
 50
0.000000
 51
90.000003
  0
ARC
  8
LC-003-002-----0
 62
     1
  6
CONTINUOUS
 10
234.184204
 20
615.268433
 40
1.500000
 50
269.999997
 51
0.000000
  0
ARC
  8
LC-003-002-----0
 62
     1
  6
CONTINUOUS
 10
277.184204
 20
615.268433
 40
1.500000
 50
180.000009
 51
269.999997
  0
LINE
  8
LC-003-002-----0
 62
     1
  6
CONTINUOUS
 10
263.684204
 20
615.268433
 11
263.684204
 21
663.268433
  0
LINE
  8
LC-003-002-----0
 62
     1
  6
CONTINUOUS
 10
247.684204
 20
615.268433
 11
247.684204
 21
663.268433
  0
ARC
  8
LC-003-002-----0
 62
     1
  6
CONTINUOUS
 10
246.184204
 20
615.268433
 40
1.500000
 50
269.999997
 51
0.000000
  0
ARC
  8
LC-003-002-----0
 62
     1
  6
CONTINUOUS
 10
249.184204
 20
663.268433
 40
1.500000
 50
90.000003
 51
180.000009
  0
ARC
  8
LC-003-002-----0
 62
     1
  6
CONTINUOUS
 10
262.184204
 20
663.268433
 40
1.500000
 50
0.000000
 51
90.000003
  0
ARC
  8
LC-003-002-----0
 62
     1
  6
CONTINUOUS
 10
124.528107
 20
633.668396
 40
22.049999
 50
112.955913
 51
67.044092
  0
ARC
  8
LC-003-002-----0
 62
     1
  6
CONTINUOUS
 10
265.184204
 20
615.268433
 40
1.500000
 50
180.000009
 51
269.999997
  0
LINE
  8
LC-003-002-----0
 62
     1
  6
CONTINUOUS
 10
249.184204
 20
658.768433
 11
262.184204
 21
658.768433
  0
LINE
  8
LC-003-002-----0
 62
     1
  6
CONTINUOUS
 10
264.684204
 20
660.768433
 11
274.184204
 21
660.768433
  0
ARC
  8
LC-003-002-----0
 62
     1
  6
CONTINUOUS
 10
249.184204
 20
657.268433
 40
1.500000
 50
90.000003
 51
180.000009
  0
ARC
  8
LC-003-002-----0
 62
     1
  6
CONTINUOUS
 10
262.184204
 20
657.268433
 40
1.500000
 50
0.000000
 51
90.000003
  0
ARC
  8
LC-003-002-----0
 62
     1
  6
CONTINUOUS
 10
246.684204
 20
661.768433
 40
1.000000
 50
269.999997
 51
0.000000
  0
ARC
  8
LC-003-002-----0
 62
     1
  6
CONTINUOUS
 10
264.684204
 20
661.768433
 40
1.000000
 50
180.000009
 51
269.999997
  0
LINE
  8
LC-004-006-----0
 62
     2
  6
DASHDOT
 10
235.684204
 20
602.101440
 11
235.684204
 21
617.098022
  0
LINE
  8
LC-003-002-----0
 62
     1
  6
CONTINUOUS
 10
115.928101
 20
653.972168
 11
116.857758
 21
656.772583
  0
LINE
  8
LC-003-002-----0
 62
     1
  6
CONTINUOUS
 10
119.213951
 20
658.786987
 11
123.428101
 21
659.486145
  0
LINE
  8
LC-004-006-----0
 62
     2
  6
DASHDOT
 10
275.684204
 20
602.101440
 11
275.684204
 21
617.098022
  0
LINE
  8
LC-006-012-----0
 62
     2
  6
DASHED
 10
278.434204
 20
604.768433
 11
278.434204
 21
613.768433
  0
LINE
  8
LC-003-002-----0
 62
     1
  6
CONTINUOUS
 10
125.628105
 20
659.486145
 11
129.842255
 21
658.786987
  0
LINE
  8
LC-003-002-----0
 62
     1
  6
CONTINUOUS
 10
133.128098
 20
653.972168
 11
132.198441
 21
656.772583
  0
CIRCLE
  8
LC-003-002-----0
 62
     1
  6
CONTINUOUS
 10
128.128098
 20
656.486145
 40
1.250000
  0
LINE
  8
LC-006-012-----0
 62
     2
  6
DASHED
 10
272.934204
 20
604.768433
 11
272.934204
 21
613.768433
  0
CIRCLE
  8
LC-003-002-----0
 62
     1
  6
CONTINUOUS
 10
120.928101
 20
656.486145
 40
1.250000
  0
ARC
  8
LC-003-002-----0
 62
     1
  6
CONTINUOUS
 10
119.704971
 20
655.827393
 40
3.000000
 50
99.420124
 51
161.635416
  0
ARC
  8
LC-003-002-----0
 62
     1
  6
CONTINUOUS
 10
129.351242
 20
655.827393
 40
3.000000
 50
18.364581
 51
80.579874
  0
LINE
  8
LC-003-002-----0
 62
     1
  6
CONTINUOUS
 10
227.934204
 20
614.768433
 11
233.834198
 21
614.768433
  0
LINE
  8
LC-006-012-----0
 62
     2
  6
DASHED
 10
232.934204
 20
604.768433
 11
232.934204
 21
613.768433
  0
LINE
  8
LC-006-012-----0
 62
     2
  6
DASHED
 10
238.434204
 20
604.768433
 11
238.434204
 21
613.768433
  0
LINE
  8
LC-003-002-----0
 62
     1
  6
CONTINUOUS
 10
227.934204
 20
654.768433
 11
233.834198
 21
654.768433
  0
LINE
  8
LC-003-002-----0
 62
     1
  6
CONTINUOUS
 10
284.684204
 20
616.018433
 11
284.684204
 21
653.518433
  0
LINE
  8
LC-003-002-----0
 62
     1
  6
CONTINUOUS
 10
226.684204
 20
616.018433
 11
226.684204
 21
653.518433
  0
ARC
  8
LC-003-002-----0
 62
     1
  6
CONTINUOUS
 10
227.934204
 20
653.518433
 40
1.250000
 50
90.000003
 51
180.000009
  0
ARC
  8
LC-003-002-----0
 62
     1
  6
CONTINUOUS
 10
227.934204
 20
616.018433
 40
1.250000
 50
180.000009
 51
269.999997
  0
ARC
  8
LC-003-002-----0
 62
     1
  6
CONTINUOUS
 10
283.434204
 20
653.518433
 40
1.250000
 50
0.000000
 51
90.000003
  0
LINE
  8
LC-006-012-----0
 62
     2
  6
DASHED
 10
235.684204
 20
654.768433
 11
277.534210
 21
654.768433
  0
LINE
  8
LC-003-002-----0
 62
     1
  6
CONTINUOUS
 10
277.534210
 20
654.768433
 11
283.434204
 21
654.768433
  0
LINE
  8
LC-003-002-----0
 62
     1
  6
CONTINUOUS
 10
277.534210
 20
614.768433
 11
283.434204
 21
614.768433
  0
LINE
  8
LC-006-012-----0
 62
     2
  6
DASHED
 10
233.834198
 20
614.768433
 11
277.534210
 21
614.768433
  0
LINE
  8
LC-003-002-----0
 62
     1
  6
CONTINUOUS
 10
233.834198
 20
659.486145
 11
235.684204
 21
659.486145
  0
LINE
  8
LC-003-002-----0
 62
     1
  6
CONTINUOUS
 10
233.834198
 20
613.768433
 11
233.834198
 21
659.486145
  0
LINE
  8
LC-003-002-----0
 62
     1
  6
CONTINUOUS
 10
277.534210
 20
613.768433
 11
277.534210
 21
659.486145
  0
LINE
  8
LC-003-002-----0
 62
     1
  6
CONTINUOUS
 10
277.534210
 20
659.486145
 11
275.684204
 21
659.486145
  0
LINE
  8
LC-003-002-----0
 62
     1
  6
CONTINUOUS
 10
233.834198
 20
653.972168
 11
235.684204
 21
653.972168
  0
LINE
  8
LC-003-002-----0
 62
     1
  6
CONTINUOUS
 10
277.534210
 20
653.972168
 11
275.684204
 21
653.972168
  0
LINE
  8
LC-003-002-----0
 62
     1
  6
CONTINUOUS
 10
210.645081
 20
647.268433
 11
226.684204
 21
647.268433
  0
LINE
  8
LC-003-002-----0
 62
     1
  6
CONTINUOUS
 10
209.680954
 20
622.268433
 11
226.684204
 21
622.268433
  0
LINE
  8
LC-004-006-----0
 62
     2
  6
DASHDOT
 10
204.495285
 20
634.768433
 11
305.574463
 21
634.768433
  0
LINE
  8
LC-001-150-----0
 62
     2
  6
CONTINUOUS
 10
300.542572
 20
622.268433
 11
302.336731
 21
628.123596
  0
LINE
  8
LC-001-150-----0
 62
     2
  6
CONTINUOUS
 10
302.336731
 20
628.123596
 11
301.251923
 21
641.112122
  0
LINE
  8
LC-001-150-----0
 62
     2
  6
CONTINUOUS
 10
301.251923
 20
641.112122
 11
301.576416
 21
647.268433
  0
LINE
  8
LC-001-150-----0
 62
     2
  6
CONTINUOUS
 10
209.680954
 20
622.268433
 11
210.770493
 21
629.244934
  0
LINE
  8
LC-001-150-----0
 62
     2
  6
CONTINUOUS
 10
210.770493
 20
629.244934
 11
210.119598
 21
641.752869
  0
LINE
  8
LC-001-150-----0
 62
     2
  6
CONTINUOUS
 10
210.119598
 20
641.752869
 11
210.645081
 21
647.268433
  0
LINE
  8
LC-006-012-----0
 62
     2
  6
DASHED
 10
226.684204
 20
647.268433
 11
284.684204
 21
647.268433
  0
LINE
  8
LC-006-012-----0
 62
     2
  6
DASHED
 10
226.684204
 20
622.268433
 11
284.684204
 21
622.268433
  0
LINE
  8
LC-003-002-----0
 62
     1
  6
CONTINUOUS
 10
284.684204
 20
622.268433
 11
300.542572
 21
622.268433
  0
LINE
  8
LC-003-002-----0
 62
     1
  6
CONTINUOUS
 10
284.684204
 20
647.268433
 11
301.576416
 21
647.268433
  0
LINE
  8
LC-003-002-----0
 62
     1
  6
CONTINUOUS
 10
87.528107
 20
537.289673
 11
87.528107
 21
486.289673
  0
LINE
  8
LC-003-002-----0
 62
     1
  6
CONTINUOUS
 10
89.028107
 20
484.789673
 11
104.528107
 21
484.789673
  0
LINE
  8
LC-003-002-----0
 62
     1
  6
CONTINUOUS
 10
161.528107
 20
537.289673
 11
161.528107
 21
486.289673
  0
LINE
  8
LC-003-002-----0
 62
     1
  6
CONTINUOUS
 10
89.028107
 20
538.789673
 11
104.528107
 21
538.789673
  0
ARC
  8
LC-003-002-----0
 62
     1
  6
CONTINUOUS
 10
89.028107
 20
537.289673
 40
1.500000
 50
90.000003
 51
180.000009
  0
ARC
  8
LC-003-002-----0
 62
     1
  6
CONTINUOUS
 10
160.028107
 20
537.289673
 40
1.500000
 50
0.000000
 51
90.000003
  0
ARC
  8
LC-003-002-----0
 62
     1
  6
CONTINUOUS
 10
160.028107
 20
486.289673
 40
1.500000
 50
269.999997
 51
0.000000
  0
ARC
  8
LC-003-002-----0
 62
     1
  6
CONTINUOUS
 10
89.028107
 20
486.289673
 40
1.500000
 50
180.000009
 51
269.999997
  0
LINE
  8
LC-004-006-----0
 62
     2
  6
DASHDOT
 10
83.174049
 20
511.789673
 11
166.898239
 21
511.789673
  0
LINE
  8
LC-004-006-----0
 62
     2
  6
DASHDOT
 10
90.147659
 20
531.789673
 11
99.043213
 21
531.789673
  0
LINE
  8
LC-004-006-----0
 62
     2
  6
DASHDOT
 10
94.528107
 20
536.683655
 11
94.528107
 21
526.972839
  0
CIRCLE
  8
LC-003-002-----0
 62
     1
  6
CONTINUOUS
 10
94.528107
 20
531.789673
 40
2.750000
  0
LINE
  8
LC-004-006-----0
 62
     2
  6
DASHDOT
 10
90.147659
 20
491.789673
 11
99.043213
 21
491.789673
  0
LINE
  8
LC-004-006-----0
 62
     2
  6
DASHDOT
 10
94.528107
 20
486.895691
 11
94.528107
 21
496.606506
  0
CIRCLE
  8
LC-003-002-----0
 62
     1
  6
CONTINUOUS
 10
94.528107
 20
491.789673
 40
2.750000
  0
LINE
  8
LC-004-006-----0
 62
     2
  6
DASHDOT
 10
158.908539
 20
531.789673
 11
150.013000
 21
531.789673
  0
LINE
  8
LC-004-006-----0
 62
     2
  6
DASHDOT
 10
154.528107
 20
536.683655
 11
154.528107
 21
526.972839
  0
CIRCLE
  8
LC-003-002-----0
 62
     1
  6
CONTINUOUS
 10
154.528107
 20
531.789673
 40
2.750000
  0
LINE
  8
LC-004-006-----0
 62
     2
  6
DASHDOT
 10
158.908539
 20
491.789673
 11
150.013000
 21
491.789673
  0
LINE
  8
LC-004-006-----0
 62
     2
  6
DASHDOT
 10
154.528107
 20
486.895691
 11
154.528107
 21
496.606506
  0
CIRCLE
  8
LC-003-002-----0
 62
     1
  6
CONTINUOUS
 10
154.528107
 20
491.789673
 40
2.750000
  0
LINE
  8
LC-003-002-----0
 62
     1
  6
CONTINUOUS
 10
87.528107
 20
519.789673
 11
161.528107
 21
519.789673
  0
LINE
  8
LC-003-002-----0
 62
     1
  6
CONTINUOUS
 10
87.528107
 20
503.789673
 11
161.528107
 21
503.789673
  0
LINE
  8
LC-003-002-----0
 62
     1
  6
CONTINUOUS
 10
91.470802
 20
518.289673
 11
91.470802
 21
505.289673
  0
ARC
  8
LC-003-002-----0
 62
     1
  6
CONTINUOUS
 10
92.970802
 20
518.289673
 40
1.500000
 50
90.000003
 51
180.000009
  0
ARC
  8
LC-003-002-----0
 62
     1
  6
CONTINUOUS
 10
92.970802
 20
505.289673
 40
1.500000
 50
180.000009
 51
269.999997
  0
LINE
  8
LC-003-002-----0
 62
     1
  6
CONTINUOUS
 10
98.528107
 20
530.289673
 11
98.528107
 21
521.289673
  0
LINE
  8
LC-003-002-----0
 62
     1
  6
CONTINUOUS
 10
150.528107
 20
530.289673
 11
150.528107
 21
521.289673
  0
LINE
  8
LC-003-002-----0
 62
     1
  6
CONTINUOUS
 10
100.028107
 20
531.789673
 11
149.028107
 21
531.789673
  0
LINE
  8
LC-003-002-----0
 62
     1
  6
CONTINUOUS
 10
100.028107
 20
491.789673
 11
149.028107
 21
491.789673
  0
ARC
  8
LC-003-002-----0
 62
     1
  6
CONTINUOUS
 10
100.028107
 20
530.289673
 40
1.500000
 50
90.000003
 51
180.000009
  0
ARC
  8
LC-003-002-----0
 62
     1
  6
CONTINUOUS
 10
149.028107
 20
530.289673
 40
1.500000
 50
0.000000
 51
90.000003
  0
ARC
  8
LC-003-002-----0
 62
     1
  6
CONTINUOUS
 10
149.028107
 20
493.289673
 40
1.500000
 50
269.999997
 51
0.000000
  0
ARC
  8
LC-003-002-----0
 62
     1
  6
CONTINUOUS
 10
100.028107
 20
493.289673
 40
1.500000
 50
180.000009
 51
269.999997
  0
LINE
  8
LC-003-002-----0
 62
     1
  6
CONTINUOUS
 10
98.528107
 20
502.289673
 11
98.528107
 21
493.289673
  0
LINE
  8
LC-003-002-----0
 62
     1
  6
CONTINUOUS
 10
150.528107
 20
502.289673
 11
150.528107
 21
493.289673
  0
LINE
  8
LC-003-002-----0
 62
     1
  6
CONTINUOUS
 10
102.505554
 20
533.639648
 11
102.505554
 21
531.789673
  0
LINE
  8
LC-003-002-----0
 62
     1
  6
CONTINUOUS
 10
146.550644
 20
533.639648
 11
146.550644
 21
531.789673
  0
LINE
  8
LC-003-002-----0
 62
     1
  6
CONTINUOUS
 10
102.505554
 20
533.639648
 11
146.550644
 21
533.639648
  0
LINE
  8
LC-003-002-----0
 62
     1
  6
CONTINUOUS
 10
102.505554
 20
489.939667
 11
102.505554
 21
491.789673
  0
LINE
  8
LC-003-002-----0
 62
     1
  6
CONTINUOUS
 10
146.550644
 20
489.939667
 11
146.550644
 21
491.789673
  0
LINE
  8
LC-003-002-----0
 62
     1
  6
CONTINUOUS
 10
123.428101
 20
533.639648
 11
123.428101
 21
531.789673
  0
LINE
  8
LC-003-002-----0
 62
     1
  6
CONTINUOUS
 10
125.628105
 20
533.639648
 11
125.628105
 21
531.789673
  0
LINE
  8
LC-003-002-----0
 62
     1
  6
CONTINUOUS
 10
102.505554
 20
489.939667
 11
146.550644
 21
489.939667
  0
LINE
  8
LC-003-002-----0
 62
     1
  6
CONTINUOUS
 10
123.428101
 20
489.939667
 11
123.428101
 21
491.789673
  0
LINE
  8
LC-003-002-----0
 62
     1
  6
CONTINUOUS
 10
125.628105
 20
489.939667
 11
125.628105
 21
491.789673
  0
LINE
  8
LC-006-012-----0
 62
     2
  6
DASHED
 10
104.528107
 20
533.639648
 11
104.528107
 21
489.939697
  0
LINE
  8
LC-006-012-----0
 62
     2
  6
DASHED
 10
144.528107
 20
533.639648
 11
144.528107
 21
489.939697
  0
LINE
  8
LC-003-002-----0
 62
     1
  6
CONTINUOUS
 10
105.778107
 20
540.789673
 11
143.278107
 21
540.789673
  0
LINE
  8
LC-003-002-----0
 62
     1
  6
CONTINUOUS
 10
105.778107
 20
482.789673
 11
143.278107
 21
482.789673
  0
ARC
  8
LC-003-002-----0
 62
     1
  6
CONTINUOUS
 10
105.778107
 20
539.539673
 40
1.250000
 50
90.000003
 51
180.000009
  0
ARC
  8
LC-003-002-----0
 62
     1
  6
CONTINUOUS
 10
143.278107
 20
539.539673
 40
1.250000
 50
0.000000
 51
90.000003
  0
ARC
  8
LC-003-002-----0
 62
     1
  6
CONTINUOUS
 10
143.278107
 20
484.039673
 40
1.250000
 50
269.999997
 51
0.000000
  0
ARC
  8
LC-003-002-----0
 62
     1
  6
CONTINUOUS
 10
105.778107
 20
484.039673
 40
1.250000
 50
180.000009
 51
269.999997
  0
LINE
  8
LC-006-012-----0
 62
     2
  6
DASHED
 10
104.528107
 20
484.789673
 11
144.528107
 21
484.789673
  0
LINE
  8
LC-003-002-----0
 62
     1
  6
CONTINUOUS
 10
144.528107
 20
484.789673
 11
160.028107
 21
484.789673
  0
LINE
  8
LC-006-012-----0
 62
     2
  6
DASHED
 10
104.528107
 20
538.789673
 11
144.528107
 21
538.789673
  0
LINE
  8
LC-003-002-----0
 62
     1
  6
CONTINUOUS
 10
144.528107
 20
538.789673
 11
160.028107
 21
538.789673
  0
LINE
  8
LC-003-002-----0
 62
     1
  6
CONTINUOUS
 10
104.528107
 20
539.539673
 11
104.528107
 21
533.639648
  0
LINE
  8
LC-003-002-----0
 62
     1
  6
CONTINUOUS
 10
144.528107
 20
539.539673
 11
144.528107
 21
533.639648
  0
LINE
  8
LC-003-002-----0
 62
     1
  6
CONTINUOUS
 10
144.528107
 20
484.039673
 11
144.528107
 21
489.939667
  0
LINE
  8
LC-003-002-----0
 62
     1
  6
CONTINUOUS
 10
104.528107
 20
484.039673
 11
104.528107
 21
489.939667
  0
LINE
  8
LC-004-006-----0
 62
     2
  6
DASHDOT
 10
124.528107
 20
557.151672
 11
124.528107
 21
465.892975
  0
LINE
  8
LC-001-150-----0
 62
     2
  6
CONTINUOUS
 10
112.028107
 20
553.879272
 11
120.647896
 21
553.097534
  0
LINE
  8
LC-001-150-----0
 62
     2
  6
CONTINUOUS
 10
120.647896
 20
553.097534
 11
131.823837
 21
554.370789
  0
LINE
  8
LC-001-150-----0
 62
     2
  6
CONTINUOUS
 10
131.823837
 20
554.370789
 11
137.028107
 21
553.831177
  0
LINE
  8
LC-001-150-----0
 62
     2
  6
CONTINUOUS
 10
112.028107
 20
469.700043
 11
120.647896
 21
470.481781
  0
LINE
  8
LC-001-150-----0
 62
     2
  6
CONTINUOUS
 10
120.647896
 20
470.481781
 11
131.823837
 21
469.208588
  0
LINE
  8
LC-001-150-----0
 62
     2
  6
CONTINUOUS
 10
131.823837
 20
469.208588
 11
137.028107
 21
469.748169
  0
LINE
  8
LC-003-002-----0
 62
     1
  6
CONTINUOUS
 10
112.028107
 20
482.789673
 11
112.028107
 21
469.700043
  0
LINE
  8
LC-003-002-----0
 62
     1
  6
CONTINUOUS
 10
137.028107
 20
482.789673
 11
137.028107
 21
469.748169
  0
LINE
  8
LC-003-002-----0
 62
     1
  6
CONTINUOUS
 10
137.028107
 20
553.831177
 11
137.028107
 21
540.789673
  0
LINE
  8
LC-006-012-----0
 62
     2
  6
DASHED
 10
137.028107
 20
540.789673
 11
137.028107
 21
482.789673
  0
LINE
  8
LC-003-002-----0
 62
     1
  6
CONTINUOUS
 10
112.028107
 20
553.879272
 11
112.028107
 21
540.789673
  0
LINE
  8
LC-006-012-----0
 62
     2
  6
DASHED
 10
112.028107
 20
540.789673
 11
112.028107
 21
482.789673
  0
ARC
  8
LC-003-002-----0
 62
     1
  6
CONTINUOUS
 10
97.028107
 20
521.289673
 40
1.500000
 50
269.999997
 51
0.000000
  0
ARC
  8
LC-003-002-----0
 62
     1
  6
CONTINUOUS
 10
97.028107
 20
502.289673
 40
1.500000
 50
0.000000
 51
90.000003
  0
ARC
  8
LC-003-002-----0
 62
     1
  6
CONTINUOUS
 10
152.028107
 20
521.289673
 40
1.500000
 50
180.000009
 51
269.999997
  0
ARC
  8
LC-003-002-----0
 62
     1
  6
CONTINUOUS
 10
152.028107
 20
502.289673
 40
1.500000
 50
90.000003
 51
180.000009
  0
LINE
  8
LC-003-002-----0
 62
     1
  6
CONTINUOUS
 10
106.034859
 20
518.289673
 11
106.034859
 21
505.289673
  0
ARC
  8
LC-003-002-----0
 62
     1
  6
CONTINUOUS
 10
107.534859
 20
518.289673
 40
1.500000
 50
90.000003
 51
180.000009
  0
ARC
  8
LC-003-002-----0
 62
     1
  6
CONTINUOUS
 10
107.534859
 20
505.289673
 40
1.500000
 50
180.000009
 51
269.999997
  0
ENDSEC
  0
EOF
