  0
SECTION
  2
HEADER
  9
$LIMMIN
 10
80.076683
 20
-101.604240
  9
$LIMMAX
 10
330.409821
 20
150.797531
  9
$EXTMIN
 10
80.076683
 20
-101.604240
  9
$EXTMAX
 10
330.409821
 20
150.797531
  0
ENDSEC
  0
SECTION
  2
TABLES
  0
TABLE
  2
LTYPE
 70
     3
  0
LTYPE
  2
CONTINUOUS
 70
    64
  3
Ausgezogene Linie
 72
    65
 73
     0
 40
0.0
  0
LTYPE
  2
DASHED
 70
    64
  3
__ __ __ __ __ __ __ __ __ __ __ __ __ __ __
 72
    65
 73
     2
 40
0.75
 49
0.5
 49
-0.25
  0
LTYPE
  2
DASHDOT
 70
    64
  3
__ . __ . __ . __ . __ . __ . __ . __ . __ . __
 72
    65
 73
     4
 40
1.0
 49
0.5
 49
-0.25
 49
0.0
 49
-0.25
  0
ENDTAB
  0
TABLE
  2
LAYER
 70
     4
  0
LAYER
  2
LC-003-002-----0
 70
    64
 62
     7
  6
CONTINUOUS
  0
LAYER
  2
LC-004-006-----0
 70
    64
 62
     7
  6
CONTINUOUS
  0
LAYER
  2
LC-006-012-----0
 70
    64
 62
     7
  6
CONTINUOUS
  0
LAYER
  2
LC-001-150-----0
 70
    64
 62
     7
  6
CONTINUOUS
  0
ENDTAB
  0
TABLE
  2
STYLE
 70
     1
  0
STYLE
  2
TXT8
 70
    64
 40
0.0
 41
1.0
 50
0.0
 71
     0
 42
3.500000
  3
TXT8
  4

  0
ENDTAB
  0
ENDSEC
  0
SECTION
  2
BLOCKS
  0
ENDSEC
  0
SECTION
  2
ENTITIES
  0
LINE
  8
LC-003-002-----0
 62
     1
  6
CONTINUOUS
 10
87.102959
 20
66.785706
 11
87.102959
 21
56.785706
  0
LINE
  8
LC-003-002-----0
 62
     1
  6
CONTINUOUS
 10
87.102959
 20
56.785706
 11
195.102951
 21
56.785706
  0
LINE
  8
LC-003-002-----0
 62
     1
  6
CONTINUOUS
 10
89.102959
 20
68.785706
 11
111.303627
 21
68.785706
  0
ARC
  8
LC-003-002-----0
 62
     1
  6
CONTINUOUS
 10
141.102951
 20
101.785706
 40
45.000000
 50
12.741697
 51
123.923114
  0
LINE
  8
LC-004-006-----0
 62
     2
  6
DASHDOT
 10
96.100304
 20
101.785706
 11
184.742432
 21
101.785706
  0
LINE
  8
LC-003-002-----0
 62
     1
  6
CONTINUOUS
 10
195.102951
 20
66.785706
 11
195.102951
 21
56.785706
  0
ARC
  8
LC-003-002-----0
 62
     1
  6
CONTINUOUS
 10
89.102959
 20
66.785706
 40
2.000000
 50
90.000003
 51
180.000009
  0
ARC
  8
LC-003-002-----0
 62
     1
  6
CONTINUOUS
 10
193.102951
 20
66.785706
 40
2.000000
 50
0.000000
 51
90.000003
  0
LINE
  8
LC-004-006-----0
 62
     2
  6
DASHDOT
 10
141.102951
 20
52.059929
 11
141.102951
 21
150.797531
  0
CIRCLE
  8
LC-003-002-----0
 62
     1
  6
CONTINUOUS
 10
141.102951
 20
101.785706
 40
20.000000
  0
CIRCLE
  8
LC-003-002-----0
 62
     1
  6
CONTINUOUS
 10
141.102951
 20
101.785706
 40
31.000000
  0
CIRCLE
  8
LC-003-002-----0
 62
     1
  6
CONTINUOUS
 10
141.102951
 20
101.785706
 40
28.000000
  0
LINE
  8
LC-003-002-----0
 62
     1
  6
CONTINUOUS
 10
241.954376
 20
141.617004
 11
244.104370
 21
141.617004
  0
LINE
  8
LC-003-002-----0
 62
     1
  6
CONTINUOUS
 10
195.053711
 20
67.226822
 11
184.994797
 21
111.710732
  0
LINE
  8
LC-003-002-----0
 62
     1
  6
CONTINUOUS
 10
87.110565
 20
66.960014
 11
93.234772
 21
136.960022
  0
LINE
  8
LC-003-002-----0
 62
     1
  6
CONTINUOUS
 10
95.227165
 20
138.785706
 11
114.873199
 21
138.785706
  0
ARC
  8
LC-003-002-----0
 62
     1
  6
CONTINUOUS
 10
95.227165
 20
136.785706
 40
2.000000
 50
90.000003
 51
175.000006
  0
ARC
  8
LC-003-002-----0
 62
     1
  6
CONTINUOUS
 10
114.873199
 20
140.785706
 40
2.000000
 50
269.999997
 51
303.923112
  0
LINE
  8
LC-004-006-----0
 62
     2
  6
DASHDOT
 10
184.102951
 20
52.059929
 11
184.102951
 21
73.754059
  0
LINE
  8
LC-006-012-----0
 62
     2
  6
DASHED
 10
188.602951
 20
56.785706
 11
188.602951
 21
68.785706
  0
LINE
  8
LC-006-012-----0
 62
     2
  6
DASHED
 10
179.602951
 20
56.785706
 11
179.602951
 21
68.785706
  0
LINE
  8
LC-004-006-----0
 62
     2
  6
DASHDOT
 10
98.102959
 20
52.059929
 11
98.102959
 21
73.754059
  0
LINE
  8
LC-006-012-----0
 62
     2
  6
DASHED
 10
93.602959
 20
56.785706
 11
93.602959
 21
68.785706
  0
LINE
  8
LC-006-012-----0
 62
     2
  6
DASHED
 10
102.602959
 20
56.785706
 11
102.602959
 21
68.785706
  0
CIRCLE
  8
LC-003-002-----0
 62
     1
  6
CONTINUOUS
 10
141.102951
 20
101.785706
 40
41.000000
  0
ARC
  8
LC-003-002-----0
 62
     1
  6
CONTINUOUS
 10
111.303627
 20
70.785706
 40
2.000000
 50
269.999997
 51
46.131337
  0
ARC
  8
LC-003-002-----0
 62
     1
  6
CONTINUOUS
 10
170.902283
 20
70.785706
 40
2.000000
 50
133.868661
 51
269.999997
  0
LINE
  8
LC-003-002-----0
 62
     1
  6
CONTINUOUS
 10
170.902283
 20
68.785706
 11
193.102951
 21
68.785706
  0
LINE
  8
LC-003-002-----0
 62
     1
  6
CONTINUOUS
 10
233.104370
 20
56.785706
 11
311.104370
 21
56.785706
  0
LINE
  8
LC-003-002-----0
 62
     1
  6
CONTINUOUS
 10
311.104370
 20
56.785706
 11
311.104370
 21
66.785706
  0
LINE
  8
LC-003-002-----0
 62
     1
  6
CONTINUOUS
 10
235.104370
 20
68.785706
 11
309.104370
 21
68.785706
  0
LINE
  8
LC-003-002-----0
 62
     1
  6
CONTINUOUS
 10
233.104370
 20
56.785706
 11
233.104370
 21
66.785706
  0
LINE
  8
LC-004-006-----0
 62
     2
  6
DASHDOT
 10
272.104370
 20
52.059929
 11
272.104370
 21
150.797531
  0
ARC
  8
LC-003-002-----0
 62
     1
  6
CONTINUOUS
 10
235.104370
 20
66.785706
 40
2.000000
 50
90.000003
 51
180.000009
  0
ARC
  8
LC-003-002-----0
 62
     1
  6
CONTINUOUS
 10
309.104370
 20
66.785706
 40
2.000000
 50
0.000000
 51
90.000003
  0
LINE
  8
LC-003-002-----0
 62
     1
  6
CONTINUOUS
 10
246.104370
 20
142.785706
 11
257.604370
 21
142.785706
  0
LINE
  8
LC-003-002-----0
 62
     1
  6
CONTINUOUS
 10
300.104370
 20
70.785706
 11
300.104370
 21
140.785706
  0
LINE
  8
LC-003-002-----0
 62
     1
  6
CONTINUOUS
 10
244.104370
 20
70.785706
 11
244.104370
 21
140.785706
  0
ARC
  8
LC-003-002-----0
 62
     1
  6
CONTINUOUS
 10
246.104370
 20
140.785706
 40
2.000000
 50
90.000003
 51
180.000009
  0
ARC
  8
LC-003-002-----0
 62
     1
  6
CONTINUOUS
 10
298.104370
 20
140.785706
 40
2.000000
 50
0.000000
 51
90.000003
  0
ARC
  8
LC-003-002-----0
 62
     1
  6
CONTINUOUS
 10
302.104370
 20
70.785706
 40
2.000000
 50
180.000009
 51
269.999997
  0
ARC
  8
LC-003-002-----0
 62
     1
  6
CONTINUOUS
 10
242.104370
 20
70.785706
 40
2.000000
 50
269.999997
 51
0.000000
  0
LINE
  8
LC-003-002-----0
 62
     1
  6
CONTINUOUS
 10
261.104370
 20
146.785706
 11
283.104370
 21
146.785706
  0
LINE
  8
LC-003-002-----0
 62
     1
  6
CONTINUOUS
 10
285.104370
 20
70.785706
 11
285.104370
 21
144.785706
  0
LINE
  8
LC-003-002-----0
 62
     1
  6
CONTINUOUS
 10
259.104370
 20
70.785706
 11
259.104370
 21
144.785706
  0
ARC
  8
LC-003-002-----0
 62
     1
  6
CONTINUOUS
 10
261.104370
 20
144.785706
 40
2.000000
 50
90.000003
 51
180.000009
  0
ARC
  8
LC-003-002-----0
 62
     1
  6
CONTINUOUS
 10
283.104370
 20
144.785706
 40
2.000000
 50
0.000000
 51
90.000003
  0
ARC
  8
LC-003-002-----0
 62
     1
  6
CONTINUOUS
 10
257.104370
 20
70.785706
 40
2.000000
 50
269.999997
 51
0.000000
  0
ARC
  8
LC-003-002-----0
 62
     1
  6
CONTINUOUS
 10
287.104370
 20
70.785706
 40
2.000000
 50
180.000009
 51
269.999997
  0
LINE
  8
LC-003-002-----0
 62
     1
  6
CONTINUOUS
 10
286.604370
 20
142.785706
 11
298.104370
 21
142.785706
  0
LINE
  8
LC-003-002-----0
 62
     1
  6
CONTINUOUS
 10
261.104370
 20
138.785706
 11
283.104370
 21
138.785706
  0
ARC
  8
LC-003-002-----0
 62
     1
  6
CONTINUOUS
 10
141.102951
 20
99.977371
 40
34.978333
 50
114.896158
 51
65.103847
  0
ARC
  8
LC-003-002-----0
 62
     1
  6
CONTINUOUS
 10
261.104370
 20
136.785706
 40
2.000000
 50
90.000003
 51
180.000009
  0
ARC
  8
LC-003-002-----0
 62
     1
  6
CONTINUOUS
 10
283.104370
 20
136.785706
 40
2.000000
 50
0.000000
 51
90.000003
  0
ARC
  8
LC-003-002-----0
 62
     1
  6
CONTINUOUS
 10
257.604370
 20
144.285706
 40
1.500000
 50
269.999997
 51
0.000000
  0
ARC
  8
LC-003-002-----0
 62
     1
  6
CONTINUOUS
 10
286.604370
 20
144.285706
 40
1.500000
 50
180.000009
 51
269.999997
  0
LINE
  8
LC-003-002-----0
 62
     1
  6
CONTINUOUS
 10
241.954376
 20
131.705246
 11
244.104370
 21
131.705246
  0
LINE
  8
LC-003-002-----0
 62
     1
  6
CONTINUOUS
 10
241.954376
 20
68.785706
 11
241.954376
 21
141.617004
  0
LINE
  8
LC-003-002-----0
 62
     1
  6
CONTINUOUS
 10
244.104370
 20
140.785706
 11
244.104370
 21
141.617004
  0
LINE
  8
LC-003-002-----0
 62
     1
  6
CONTINUOUS
 10
87.102959
 20
-7.145902
 11
87.102959
 21
-81.145905
  0
LINE
  8
LC-003-002-----0
 62
     1
  6
CONTINUOUS
 10
155.827957
 20
131.705246
 11
154.194824
 21
136.827316
  0
LINE
  8
LC-003-002-----0
 62
     1
  6
CONTINUOUS
 10
150.163513
 20
140.347031
 11
142.911285
 21
141.617004
  0
LINE
  8
LC-003-002-----0
 62
     1
  6
CONTINUOUS
 10
142.911285
 20
132.732925
 11
142.911285
 21
141.617004
  0
LINE
  8
LC-003-002-----0
 62
     1
  6
CONTINUOUS
 10
139.294617
 20
132.732925
 11
139.294617
 21
141.617004
  0
LINE
  8
LC-003-002-----0
 62
     1
  6
CONTINUOUS
 10
139.294617
 20
141.617004
 11
132.042404
 21
140.347031
  0
LINE
  8
LC-003-002-----0
 62
     1
  6
CONTINUOUS
 10
126.377960
 20
131.705246
 11
128.011078
 21
136.827316
  0
CIRCLE
  8
LC-003-002-----0
 62
     1
  6
CONTINUOUS
 10
135.161285
 20
136.450333
 40
2.066667
  0
LINE
  8
LC-003-002-----0
 62
     1
  6
CONTINUOUS
 10
302.254364
 20
141.617004
 11
300.104370
 21
141.617004
  0
CIRCLE
  8
LC-003-002-----0
 62
     1
  6
CONTINUOUS
 10
147.044617
 20
136.450333
 40
2.066667
  0
ARC
  8
LC-003-002-----0
 62
     1
  6
CONTINUOUS
 10
149.272324
 20
135.257813
 40
5.166667
 50
17.684461
 51
80.067439
  0
ARC
  8
LC-003-002-----0
 62
     1
  6
CONTINUOUS
 10
132.933594
 20
135.257813
 40
5.166667
 50
99.932559
 51
162.315539
  0
LINE
  8
LC-003-002-----0
 62
     1
  6
CONTINUOUS
 10
302.254364
 20
131.705246
 11
300.104370
 21
131.705246
  0
LINE
  8
LC-003-002-----0
 62
     1
  6
CONTINUOUS
 10
302.254364
 20
68.785706
 11
302.254364
 21
141.617004
  0
LINE
  8
LC-003-002-----0
 62
     1
  6
CONTINUOUS
 10
300.104370
 20
140.785706
 11
300.104370
 21
141.617004
  0
LINE
  8
LC-003-002-----0
 62
     1
  6
CONTINUOUS
 10
89.102959
 20
-83.145905
 11
110.188744
 21
-83.145905
  0
LINE
  8
LC-004-006-----0
 62
     2
  6
DASHDOT
 10
243.104370
 20
52.059929
 11
243.104370
 21
73.754059
  0
LINE
  8
LC-004-006-----0
 62
     2
  6
DASHDOT
 10
301.104370
 20
52.059929
 11
301.104370
 21
73.754059
  0
LINE
  8
LC-006-012-----0
 62
     2
  6
DASHED
 10
305.604370
 20
56.785706
 11
305.604370
 21
68.785706
  0
LINE
  8
LC-006-012-----0
 62
     2
  6
DASHED
 10
296.604370
 20
56.785706
 11
296.604370
 21
68.785706
  0
LINE
  8
LC-003-002-----0
 62
     1
  6
CONTINUOUS
 10
233.604370
 20
132.785706
 11
241.954376
 21
132.785706
  0
LINE
  8
LC-006-012-----0
 62
     2
  6
DASHED
 10
238.604370
 20
56.785706
 11
238.604370
 21
68.785706
  0
LINE
  8
LC-006-012-----0
 62
     2
  6
DASHED
 10
247.604370
 20
56.785706
 11
247.604370
 21
68.785706
  0
LINE
  8
LC-003-002-----0
 62
     1
  6
CONTINUOUS
 10
233.604370
 20
70.785706
 11
241.954376
 21
70.785706
  0
LINE
  8
LC-003-002-----0
 62
     1
  6
CONTINUOUS
 10
312.104370
 20
72.285706
 11
312.104370
 21
131.285706
  0
LINE
  8
LC-003-002-----0
 62
     1
  6
CONTINUOUS
 10
232.104370
 20
72.285706
 11
232.104370
 21
131.285706
  0
ARC
  8
LC-003-002-----0
 62
     1
  6
CONTINUOUS
 10
233.604370
 20
131.285706
 40
1.500000
 50
90.000003
 51
180.000009
  0
ARC
  8
LC-003-002-----0
 62
     1
  6
CONTINUOUS
 10
233.604370
 20
72.285706
 40
1.500000
 50
180.000009
 51
269.999997
  0
ARC
  8
LC-003-002-----0
 62
     1
  6
CONTINUOUS
 10
310.604370
 20
72.285706
 40
1.500000
 50
269.999997
 51
0.000000
  0
ARC
  8
LC-003-002-----0
 62
     1
  6
CONTINUOUS
 10
310.604370
 20
131.285706
 40
1.500000
 50
0.000000
 51
90.000003
  0
LINE
  8
LC-003-002-----0
 62
     1
  6
CONTINUOUS
 10
195.102951
 20
-7.145902
 11
195.102951
 21
-81.145905
  0
LINE
  8
LC-006-012-----0
 62
     2
  6
DASHED
 10
241.954376
 20
132.785706
 11
302.254364
 21
132.785706
  0
LINE
  8
LC-006-012-----0
 62
     2
  6
DASHED
 10
241.954376
 20
70.785706
 11
302.254364
 21
70.785706
  0
LINE
  8
LC-003-002-----0
 62
     1
  6
CONTINUOUS
 10
302.254364
 20
70.785706
 11
310.604370
 21
70.785706
  0
LINE
  8
LC-003-002-----0
 62
     1
  6
CONTINUOUS
 10
302.254364
 20
132.785706
 11
310.604370
 21
132.785706
  0
LINE
  8
LC-004-006-----0
 62
     2
  6
DASHDOT
 10
211.515335
 20
101.785706
 11
330.409821
 21
101.785706
  0
LINE
  8
LC-003-002-----0
 62
     1
  6
CONTINUOUS
 10
217.787964
 20
121.785706
 11
232.104370
 21
121.785706
  0
LINE
  8
LC-001-150-----0
 62
     2
  6
CONTINUOUS
 10
324.365509
 20
81.785706
 11
326.338257
 21
91.870026
  0
LINE
  8
LC-001-150-----0
 62
     2
  6
CONTINUOUS
 10
326.338257
 20
91.870026
 11
324.748077
 21
108.153114
  0
LINE
  8
LC-001-150-----0
 62
     2
  6
CONTINUOUS
 10
324.748077
 20
108.153114
 11
326.088684
 21
121.785706
  0
LINE
  8
LC-001-150-----0
 62
     2
  6
CONTINUOUS
 10
214.595688
 20
81.785706
 11
216.949905
 21
93.379532
  0
LINE
  8
LC-001-150-----0
 62
     2
  6
CONTINUOUS
 10
216.949905
 20
93.379532
 11
216.041229
 21
112.353172
  0
LINE
  8
LC-001-150-----0
 62
     2
  6
CONTINUOUS
 10
216.041229
 20
112.353172
 11
217.787964
 21
121.785706
  0
LINE
  8
LC-006-012-----0
 62
     2
  6
DASHED
 10
232.104370
 20
121.785706
 11
312.104370
 21
121.785706
  0
LINE
  8
LC-003-002-----0
 62
     1
  6
CONTINUOUS
 10
214.595688
 20
81.785706
 11
232.104370
 21
81.785706
  0
LINE
  8
LC-006-012-----0
 62
     2
  6
DASHED
 10
232.104370
 20
81.785706
 11
312.104370
 21
81.785706
  0
LINE
  8
LC-003-002-----0
 62
     1
  6
CONTINUOUS
 10
312.104370
 20
121.785706
 11
326.088684
 21
121.785706
  0
LINE
  8
LC-003-002-----0
 62
     1
  6
CONTINUOUS
 10
312.104370
 20
81.785706
 11
324.365509
 21
81.785706
  0
LINE
  8
LC-003-002-----0
 62
     1
  6
CONTINUOUS
 10
89.102959
 20
-5.145902
 11
110.188744
 21
-5.145902
  0
LINE
  8
LC-004-006-----0
 62
     2
  6
DASHDOT
 10
80.076683
 20
-44.145901
 11
201.225433
 21
-44.145901
  0
ARC
  8
LC-003-002-----0
 62
     1
  6
CONTINUOUS
 10
89.102959
 20
-7.145902
 40
2.000000
 50
90.000003
 51
180.000009
  0
ARC
  8
LC-003-002-----0
 62
     1
  6
CONTINUOUS
 10
89.102959
 20
-81.145905
 40
2.000000
 50
180.000009
 51
269.999997
  0
ARC
  8
LC-003-002-----0
 62
     1
  6
CONTINUOUS
 10
193.102951
 20
-81.145905
 40
2.000000
 50
269.999997
 51
0.000000
  0
ARC
  8
LC-003-002-----0
 62
     1
  6
CONTINUOUS
 10
193.102951
 20
-7.145902
 40
2.000000
 50
0.000000
 51
90.000003
  0
LINE
  8
LC-003-002-----0
 62
     1
  6
CONTINUOUS
 10
87.102959
 20
-31.145903
 11
195.102951
 21
-31.145903
  0
LINE
  8
LC-003-002-----0
 62
     1
  6
CONTINUOUS
 10
87.102959
 20
-57.145901
 11
195.102951
 21
-57.145901
  0
LINE
  8
LC-003-002-----0
 62
     1
  6
CONTINUOUS
 10
93.234772
 20
-33.145901
 11
93.234772
 21
-55.145901
  0
ARC
  8
LC-003-002-----0
 62
     1
  6
CONTINUOUS
 10
95.234772
 20
-55.145901
 40
2.000000
 50
180.000009
 51
269.999997
  0
ARC
  8
LC-003-002-----0
 62
     1
  6
CONTINUOUS
 10
95.234772
 20
-33.145901
 40
2.000000
 50
90.000003
 51
180.000009
  0
LINE
  8
LC-004-006-----0
 62
     2
  6
DASHDOT
 10
91.342468
 20
-15.145902
 11
105.150841
 21
-15.145902
  0
LINE
  8
LC-004-006-----0
 62
     2
  6
DASHDOT
 10
98.102959
 20
-8.953773
 11
98.102959
 21
-21.916910
  0
ARC
  8
LC-003-002-----0
 62
     1
  6
CONTINUOUS
 10
98.102959
 20
-15.145902
 40
4.500000
 50
347.160412
 51
296.387798
  0
LINE
  8
LC-004-006-----0
 62
     2
  6
DASHDOT
 10
91.342468
 20
-73.145905
 11
105.150841
 21
-73.145905
  0
LINE
  8
LC-004-006-----0
 62
     2
  6
DASHDOT
 10
98.102959
 20
-79.338028
 11
98.102959
 21
-66.374893
  0
ARC
  8
LC-003-002-----0
 62
     1
  6
CONTINUOUS
 10
98.102959
 20
-73.145905
 40
4.500000
 50
63.612202
 51
12.839588
  0
LINE
  8
LC-004-006-----0
 62
     2
  6
DASHDOT
 10
190.863449
 20
-15.145902
 11
177.055069
 21
-15.145902
  0
LINE
  8
LC-004-006-----0
 62
     2
  6
DASHDOT
 10
184.102951
 20
-8.953773
 11
184.102951
 21
-21.916910
  0
ARC
  8
LC-003-002-----0
 62
     1
  6
CONTINUOUS
 10
184.102951
 20
-15.145902
 40
4.500000
 50
243.612197
 51
192.839589
  0
LINE
  8
LC-004-006-----0
 62
     2
  6
DASHDOT
 10
190.863449
 20
-73.145905
 11
177.055069
 21
-73.145905
  0
LINE
  8
LC-004-006-----0
 62
     2
  6
DASHDOT
 10
184.102951
 20
-79.338028
 11
184.102951
 21
-66.374893
  0
ARC
  8
LC-003-002-----0
 62
     1
  6
CONTINUOUS
 10
184.102951
 20
-73.145905
 40
4.500000
 50
167.160411
 51
116.387803
  0
LINE
  8
LC-003-002-----0
 62
     1
  6
CONTINUOUS
 10
100.102959
 20
-18.145903
 11
100.102959
 21
-29.145903
  0
LINE
  8
LC-003-002-----0
 62
     1
  6
CONTINUOUS
 10
182.102951
 20
-18.145903
 11
182.102951
 21
-29.145903
  0
LINE
  8
LC-003-002-----0
 62
     1
  6
CONTINUOUS
 10
102.102959
 20
-16.145903
 11
180.102951
 21
-16.145903
  0
LINE
  8
LC-003-002-----0
 62
     1
  6
CONTINUOUS
 10
102.102959
 20
-72.145905
 11
180.102951
 21
-72.145905
  0
ARC
  8
LC-003-002-----0
 62
     1
  6
CONTINUOUS
 10
102.102959
 20
-18.145903
 40
2.000000
 50
90.000003
 51
180.000009
  0
ARC
  8
LC-003-002-----0
 62
     1
  6
CONTINUOUS
 10
102.102959
 20
-70.145905
 40
2.000000
 50
180.000009
 51
269.999997
  0
ARC
  8
LC-003-002-----0
 62
     1
  6
CONTINUOUS
 10
180.102951
 20
-70.145905
 40
2.000000
 50
269.999997
 51
0.000000
  0
ARC
  8
LC-003-002-----0
 62
     1
  6
CONTINUOUS
 10
180.102951
 20
-18.145903
 40
2.000000
 50
0.000000
 51
90.000003
  0
LINE
  8
LC-003-002-----0
 62
     1
  6
CONTINUOUS
 10
100.102959
 20
-59.145901
 11
100.102959
 21
-70.145905
  0
LINE
  8
LC-003-002-----0
 62
     1
  6
CONTINUOUS
 10
182.102951
 20
-59.145901
 11
182.102951
 21
-70.145905
  0
ARC
  8
LC-006-012-----0
 62
     2
  6
DASHED
 10
98.102959
 20
-15.145902
 40
4.500000
 50
296.387798
 51
347.160412
  0
ARC
  8
LC-006-012-----0
 62
     2
  6
DASHED
 10
98.102959
 20
-73.145905
 40
4.500000
 50
12.839588
 51
63.612202
  0
ARC
  8
LC-006-012-----0
 62
     2
  6
DASHED
 10
184.102951
 20
-15.145902
 40
4.500000
 50
192.839589
 51
243.612197
  0
ARC
  8
LC-006-012-----0
 62
     2
  6
DASHED
 10
184.102951
 20
-73.145905
 40
4.500000
 50
116.387803
 51
167.160411
  0
ARC
  8
LC-003-002-----0
 62
     1
  6
CONTINUOUS
 10
98.102959
 20
-29.145903
 40
2.000000
 50
269.999997
 51
0.000000
  0
ARC
  8
LC-003-002-----0
 62
     1
  6
CONTINUOUS
 10
98.102959
 20
-59.145901
 40
2.000000
 50
0.000000
 51
90.000003
  0
ARC
  8
LC-003-002-----0
 62
     1
  6
CONTINUOUS
 10
184.102951
 20
-29.145903
 40
2.000000
 50
180.000009
 51
269.999997
  0
ARC
  8
LC-003-002-----0
 62
     1
  6
CONTINUOUS
 10
184.102951
 20
-59.145901
 40
2.000000
 50
90.000003
 51
180.000009
  0
LINE
  8
LC-003-002-----0
 62
     1
  6
CONTINUOUS
 10
106.171402
 20
-13.995902
 11
106.171402
 21
-16.145903
  0
LINE
  8
LC-003-002-----0
 62
     1
  6
CONTINUOUS
 10
139.294617
 20
-13.995902
 11
139.294617
 21
-16.145903
  0
LINE
  8
LC-003-002-----0
 62
     1
  6
CONTINUOUS
 10
142.911285
 20
-13.995902
 11
142.911285
 21
-16.145903
  0
LINE
  8
LC-003-002-----0
 62
     1
  6
CONTINUOUS
 10
176.034515
 20
-13.995902
 11
176.034515
 21
-16.145903
  0
LINE
  8
LC-003-002-----0
 62
     1
  6
CONTINUOUS
 10
106.171402
 20
-13.995902
 11
176.034515
 21
-13.995902
  0
LINE
  8
LC-003-002-----0
 62
     1
  6
CONTINUOUS
 10
106.171402
 20
-74.295898
 11
106.171402
 21
-72.145905
  0
LINE
  8
LC-003-002-----0
 62
     1
  6
CONTINUOUS
 10
139.294617
 20
-74.295898
 11
139.294617
 21
-72.145905
  0
LINE
  8
LC-003-002-----0
 62
     1
  6
CONTINUOUS
 10
142.911285
 20
-74.295898
 11
142.911285
 21
-72.145905
  0
LINE
  8
LC-003-002-----0
 62
     1
  6
CONTINUOUS
 10
176.034515
 20
-74.295898
 11
176.034515
 21
-72.145905
  0
LINE
  8
LC-003-002-----0
 62
     1
  6
CONTINUOUS
 10
106.171402
 20
-74.295898
 11
176.034515
 21
-74.295898
  0
LINE
  8
LC-003-002-----0
 62
     1
  6
CONTINUOUS
 10
161.102951
 20
9.325546
 11
161.102951
 21
-4.145903
  0
LINE
  8
LC-003-002-----0
 62
     1
  6
CONTINUOUS
 10
110.102959
 20
-5.645902
 11
110.102959
 21
-13.995902
  0
LINE
  8
LC-003-002-----0
 62
     1
  6
CONTINUOUS
 10
172.102951
 20
-5.645902
 11
172.102951
 21
-13.995902
  0
LINE
  8
LC-001-150-----0
 62
     2
  6
CONTINUOUS
 10
121.102959
 20
-96.904999
 11
131.130554
 21
-98.210846
  0
LINE
  8
LC-003-002-----0
 62
     1
  6
CONTINUOUS
 10
111.602959
 20
-4.145902
 11
170.602951
 21
-4.145902
  0
LINE
  8
LC-003-002-----0
 62
     1
  6
CONTINUOUS
 10
111.602959
 20
-84.145905
 11
170.602951
 21
-84.145905
  0
ARC
  8
LC-003-002-----0
 62
     1
  6
CONTINUOUS
 10
111.602959
 20
-5.645902
 40
1.500000
 50
90.000003
 51
180.000009
  0
ARC
  8
LC-003-002-----0
 62
     1
  6
CONTINUOUS
 10
170.602951
 20
-5.645902
 40
1.500000
 50
0.000000
 51
90.000003
  0
ARC
  8
LC-003-002-----0
 62
     1
  6
CONTINUOUS
 10
170.602951
 20
-82.645905
 40
1.500000
 50
269.999997
 51
0.000000
  0
ARC
  8
LC-003-002-----0
 62
     1
  6
CONTINUOUS
 10
111.602959
 20
-82.645905
 40
1.500000
 50
180.000009
 51
269.999997
  0
LINE
  8
LC-003-002-----0
 62
     1
  6
CONTINUOUS
 10
110.102959
 20
-74.295898
 11
110.102959
 21
-82.645905
  0
LINE
  8
LC-006-012-----0
 62
     2
  6
DASHED
 10
110.188744
 20
-83.145905
 11
172.017166
 21
-83.145905
  0
LINE
  8
LC-003-002-----0
 62
     1
  6
CONTINUOUS
 10
172.017166
 20
-83.145905
 11
193.102951
 21
-83.145905
  0
LINE
  8
LC-006-012-----0
 62
     2
  6
DASHED
 10
110.188744
 20
-5.145902
 11
172.017166
 21
-5.145902
  0
LINE
  8
LC-003-002-----0
 62
     1
  6
CONTINUOUS
 10
172.017166
 20
-5.145902
 11
193.102951
 21
-5.145902
  0
LINE
  8
LC-003-002-----0
 62
     1
  6
CONTINUOUS
 10
172.102951
 20
-74.295898
 11
172.102951
 21
-82.645905
  0
LINE
  8
LC-006-012-----0
 62
     2
  6
DASHED
 10
172.102951
 20
-13.995902
 11
172.102951
 21
-74.295898
  0
LINE
  8
LC-006-012-----0
 62
     2
  6
DASHED
 10
110.102959
 20
-13.995902
 11
110.102959
 21
-74.295898
  0
LINE
  8
LC-001-150-----0
 62
     2
  6
CONTINUOUS
 10
131.130554
 20
-98.210846
 11
150.874832
 21
-95.589668
  0
LINE
  8
LC-001-150-----0
 62
     2
  6
CONTINUOUS
 10
150.874832
 20
-95.589668
 11
161.102951
 21
-97.617348
  0
LINE
  8
LC-001-150-----0
 62
     2
  6
CONTINUOUS
 10
121.102959
 20
8.613198
 11
131.130554
 21
9.919042
  0
LINE
  8
LC-001-150-----0
 62
     2
  6
CONTINUOUS
 10
131.130554
 20
9.919042
 11
150.874832
 21
7.297862
  0
LINE
  8
LC-001-150-----0
 62
     2
  6
CONTINUOUS
 10
150.874832
 20
7.297861
 11
161.102951
 21
9.325546
  0
LINE
  8
LC-003-002-----0
 62
     1
  6
CONTINUOUS
 10
121.102959
 20
8.613198
 11
121.102959
 21
-4.145903
  0
LINE
  8
LC-006-012-----0
 62
     2
  6
DASHED
 10
121.102959
 20
-4.145902
 11
121.102959
 21
-84.145905
  0
LINE
  8
LC-006-012-----0
 62
     2
  6
DASHED
 10
161.102951
 20
-4.145902
 11
161.102951
 21
-84.145905
  0
LINE
  8
LC-003-002-----0
 62
     1
  6
CONTINUOUS
 10
161.102951
 20
-84.145905
 11
161.102951
 21
-97.617348
  0
LINE
  8
LC-003-002-----0
 62
     1
  6
CONTINUOUS
 10
121.102959
 20
-84.145905
 11
121.102959
 21
-96.904999
  0
LINE
  8
LC-004-006-----0
 62
     2
  6
DASHDOT
 10
141.102951
 20
12.938649
 11
141.102951
 21
-101.604240
  0
LINE
  8
LC-003-002-----0
 62
     1
  6
CONTINUOUS
 10
114.873199
 20
-33.145901
 11
114.873199
 21
-55.145901
  0
ARC
  8
LC-003-002-----0
 62
     1
  6
CONTINUOUS
 10
116.873199
 20
-33.145901
 40
2.000000
 50
90.000003
 51
180.000009
  0
ARC
  8
LC-003-002-----0
 62
     1
  6
CONTINUOUS
 10
116.873199
 20
-55.145901
 40
2.000000
 50
180.000009
 51
269.999997
  0
ENDSEC
  0
EOF
