  0
SECTION
  2
HEADER
  9
$LIMMIN
 10
392.175079
 20
375.044830
  9
$LIMMAX
 10
719.151978
 20
682.636353
  9
$EXTMIN
 10
392.175079
 20
375.044830
  9
$EXTMAX
 10
719.151978
 20
682.636353
  0
ENDSEC
  0
SECTION
  2
TABLES
  0
TABLE
  2
LTYPE
 70
     3
  0
LTYPE
  2
CONTINUOUS
 70
    64
  3
Ausgezogene Linie
 72
    65
 73
     0
 40
0.0
  0
LTYPE
  2
DASHED
 70
    64
  3
__ __ __ __ __ __ __ __ __ __ __ __ __ __ __
 72
    65
 73
     2
 40
0.75
 49
0.5
 49
-0.25
  0
LTYPE
  2
DASHDOT
 70
    64
  3
__ . __ . __ . __ . __ . __ . __ . __ . __ . __
 72
    65
 73
     4
 40
1.0
 49
0.5
 49
-0.25
 49
0.0
 49
-0.25
  0
ENDTAB
  0
TABLE
  2
LAYER
 70
     4
  0
LAYER
  2
LC-003-002-----0
 70
    64
 62
     7
  6
CONTINUOUS
  0
LAYER
  2
LC-004-006-----0
 70
    64
 62
     7
  6
CONTINUOUS
  0
LAYER
  2
LC-006-012-----0
 70
    64
 62
     7
  6
CONTINUOUS
  0
LAYER
  2
LC-001-150-----0
 70
    64
 62
     7
  6
CONTINUOUS
  0
ENDTAB
  0
TABLE
  2
STYLE
 70
     1
  0
STYLE
  2
TXT8
 70
    64
 40
0.0
 41
1.0
 50
0.0
 71
     0
 42
3.500000
  3
TXT8
  4

  0
ENDTAB
  0
ENDSEC
  0
SECTION
  2
BLOCKS
  0
ENDSEC
  0
SECTION
  2
ENTITIES
  0
ARC
  8
LC-003-002-----0
 62
     1
  6
CONTINUOUS
 10
463.010437
 20
622.821838
 40
48.000000
 50
107.986951
 51
72.013054
  0
ARC
  8
LC-003-002-----0
 62
     1
  6
CONTINUOUS
 10
426.349823
 20
588.821838
 40
2.000000
 50
269.999997
 51
42.843642
  0
ARC
  8
LC-003-002-----0
 62
     1
  6
CONTINUOUS
 10
499.671051
 20
588.821838
 40
2.000000
 50
137.156359
 51
269.999997
  0
ARC
  8
LC-003-002-----0
 62
     1
  6
CONTINUOUS
 10
463.010437
 20
622.821838
 40
48.000000
 50
87.313279
 51
92.686726
  0
LINE
  8
LC-004-006-----0
 62
     2
  6
DASHDOT
 10
517.010437
 20
591.658447
 11
517.010437
 21
568.098389
  0
LINE
  8
LC-006-012-----0
 62
     2
  6
DASHED
 10
521.510437
 20
586.821838
 11
521.510437
 21
572.821838
  0
LINE
  8
LC-006-012-----0
 62
     2
  6
DASHED
 10
512.510437
 20
586.821838
 11
512.510437
 21
572.821838
  0
LINE
  8
LC-004-006-----0
 62
     2
  6
DASHDOT
 10
409.010437
 20
591.658447
 11
409.010437
 21
568.098389
  0
LINE
  8
LC-006-012-----0
 62
     2
  6
DASHED
 10
404.510437
 20
586.821838
 11
404.510437
 21
572.821838
  0
LINE
  8
LC-006-012-----0
 62
     2
  6
DASHED
 10
413.510437
 20
586.821838
 11
413.510437
 21
572.821838
  0
LINE
  8
LC-003-002-----0
 62
     1
  6
CONTINUOUS
 10
398.010437
 20
584.821838
 11
398.010437
 21
572.821838
  0
LINE
  8
LC-003-002-----0
 62
     1
  6
CONTINUOUS
 10
398.010437
 20
572.821838
 11
528.010437
 21
572.821838
  0
LINE
  8
LC-003-002-----0
 62
     1
  6
CONTINUOUS
 10
400.010437
 20
586.821838
 11
426.349823
 21
586.821838
  0
LINE
  8
LC-003-002-----0
 62
     1
  6
CONTINUOUS
 10
608.736450
 20
572.821838
 11
678.736450
 21
572.821838
  0
LINE
  8
LC-004-006-----0
 62
     2
  6
DASHDOT
 10
410.862457
 20
622.821838
 11
514.673645
 21
622.821838
  0
LINE
  8
LC-004-006-----0
 62
     2
  6
DASHDOT
 10
463.010437
 20
682.636353
 11
463.010437
 21
568.098389
  0
LINE
  8
LC-003-002-----0
 62
     1
  6
CONTINUOUS
 10
528.010437
 20
584.821838
 11
528.010437
 21
572.821838
  0
ARC
  8
LC-003-002-----0
 62
     1
  6
CONTINUOUS
 10
400.010437
 20
584.821838
 40
2.000000
 50
90.000003
 51
180.000009
  0
ARC
  8
LC-003-002-----0
 62
     1
  6
CONTINUOUS
 10
526.010437
 20
584.821838
 40
2.000000
 50
0.000000
 51
90.000003
  0
CIRCLE
  8
LC-003-002-----0
 62
     1
  6
CONTINUOUS
 10
463.010437
 20
622.821838
 40
25.000000
  0
CIRCLE
  8
LC-003-002-----0
 62
     1
  6
CONTINUOUS
 10
463.010437
 20
622.821838
 40
37.500000
  0
CIRCLE
  8
LC-003-002-----0
 62
     1
  6
CONTINUOUS
 10
463.010437
 20
622.821838
 40
33.000000
  0
LINE
  8
LC-003-002-----0
 62
     1
  6
CONTINUOUS
 10
678.736450
 20
572.821838
 11
678.736450
 21
584.821838
  0
LINE
  8
LC-003-002-----0
 62
     1
  6
CONTINUOUS
 10
527.960632
 20
585.265503
 11
516.639954
 21
635.023376
  0
LINE
  8
LC-003-002-----0
 62
     1
  6
CONTINUOUS
 10
398.018036
 20
584.996155
 11
405.104645
 21
665.996155
  0
LINE
  8
LC-003-002-----0
 62
     1
  6
CONTINUOUS
 10
407.097015
 20
667.821838
 11
430.761414
 21
667.821838
  0
ARC
  8
LC-003-002-----0
 62
     1
  6
CONTINUOUS
 10
407.097015
 20
665.821838
 40
2.000000
 50
90.000003
 51
175.000006
  0
ARC
  8
LC-003-002-----0
 62
     1
  6
CONTINUOUS
 10
430.761414
 20
669.821838
 40
2.000000
 50
269.999997
 51
304.455949
  0
ARC
  8
LC-003-002-----0
 62
     1
  6
CONTINUOUS
 10
463.010437
 20
622.821838
 40
55.000000
 50
12.817481
 51
124.455950
  0
LINE
  8
LC-003-002-----0
 62
     1
  6
CONTINUOUS
 10
630.736450
 20
677.821838
 11
656.736450
 21
677.821838
  0
LINE
  8
LC-003-002-----0
 62
     1
  6
CONTINUOUS
 10
499.671051
 20
586.821838
 11
526.010437
 21
586.821838
  0
LINE
  8
LC-003-002-----0
 62
     1
  6
CONTINUOUS
 10
610.736450
 20
586.821838
 11
676.736450
 21
586.821838
  0
LINE
  8
LC-003-002-----0
 62
     1
  6
CONTINUOUS
 10
608.736450
 20
572.821838
 11
608.736450
 21
584.821838
  0
ARC
  8
LC-003-002-----0
 62
     1
  6
CONTINUOUS
 10
610.736450
 20
584.821838
 40
2.000000
 50
90.000003
 51
180.000009
  0
ARC
  8
LC-003-002-----0
 62
     1
  6
CONTINUOUS
 10
676.736450
 20
584.821838
 40
2.000000
 50
0.000000
 51
90.000003
  0
LINE
  8
LC-004-006-----0
 62
     2
  6
DASHDOT
 10
643.736450
 20
568.098389
 11
643.736450
 21
682.636353
  0
LINE
  8
LC-003-002-----0
 62
     1
  6
CONTINUOUS
 10
609.736450
 20
670.821838
 11
626.736450
 21
670.821838
  0
LINE
  8
LC-003-002-----0
 62
     1
  6
CONTINUOUS
 10
679.736450
 20
576.821838
 11
679.736450
 21
668.821838
  0
LINE
  8
LC-003-002-----0
 62
     1
  6
CONTINUOUS
 10
607.736450
 20
576.821838
 11
607.736450
 21
668.821838
  0
ARC
  8
LC-003-002-----0
 62
     1
  6
CONTINUOUS
 10
609.736450
 20
668.821838
 40
2.000000
 50
90.000003
 51
180.000009
  0
ARC
  8
LC-003-002-----0
 62
     1
  6
CONTINUOUS
 10
677.736450
 20
668.821838
 40
2.000000
 50
0.000000
 51
90.000003
  0
LINE
  8
LC-003-002-----0
 62
     1
  6
CONTINUOUS
 10
658.736450
 20
588.821838
 11
658.736450
 21
675.821838
  0
LINE
  8
LC-003-002-----0
 62
     1
  6
CONTINUOUS
 10
628.736450
 20
588.821838
 11
628.736450
 21
675.821838
  0
ARC
  8
LC-003-002-----0
 62
     1
  6
CONTINUOUS
 10
630.736450
 20
675.821838
 40
2.000000
 50
90.000003
 51
180.000009
  0
ARC
  8
LC-003-002-----0
 62
     1
  6
CONTINUOUS
 10
463.010437
 20
620.571838
 40
42.599998
 50
116.112874
 51
63.887131
  0
ARC
  8
LC-003-002-----0
 62
     1
  6
CONTINUOUS
 10
656.736450
 20
675.821838
 40
2.000000
 50
0.000000
 51
90.000003
  0
ARC
  8
LC-003-002-----0
 62
     1
  6
CONTINUOUS
 10
660.736450
 20
672.821838
 40
2.000000
 50
180.000009
 51
269.999997
  0
ARC
  8
LC-003-002-----0
 62
     1
  6
CONTINUOUS
 10
626.736450
 20
672.821838
 40
2.000000
 50
269.999997
 51
0.000000
  0
LINE
  8
LC-003-002-----0
 62
     1
  6
CONTINUOUS
 10
660.736450
 20
670.821838
 11
677.736450
 21
670.821838
  0
ARC
  8
LC-003-002-----0
 62
     1
  6
CONTINUOUS
 10
626.736450
 20
588.821838
 40
2.000000
 50
269.999997
 51
0.000000
  0
ARC
  8
LC-003-002-----0
 62
     1
  6
CONTINUOUS
 10
660.736450
 20
588.821838
 40
2.000000
 50
180.000009
 51
269.999997
  0
LINE
  8
LC-003-002-----0
 62
     1
  6
CONTINUOUS
 10
630.736450
 20
667.821838
 11
656.736450
 21
667.821838
  0
ARC
  8
LC-003-002-----0
 62
     1
  6
CONTINUOUS
 10
630.736450
 20
665.821838
 40
2.000000
 50
90.000003
 51
180.000009
  0
LINE
  8
LC-003-002-----0
 62
     1
  6
CONTINUOUS
 10
444.260437
 20
658.823608
 11
446.370270
 21
665.595703
  0
LINE
  8
LC-003-002-----0
 62
     1
  6
CONTINUOUS
 10
451.497925
 20
670.127380
 11
460.760437
 21
671.801147
  0
LINE
  8
LC-003-002-----0
 62
     1
  6
CONTINUOUS
 10
460.760437
 20
660.254272
 11
460.760437
 21
671.801147
  0
LINE
  8
LC-003-002-----0
 62
     1
  6
CONTINUOUS
 10
465.260437
 20
660.254272
 11
465.260437
 21
671.801147
  0
LINE
  8
LC-003-002-----0
 62
     1
  6
CONTINUOUS
 10
465.260437
 20
671.801147
 11
474.522949
 21
670.127380
  0
LINE
  8
LC-003-002-----0
 62
     1
  6
CONTINUOUS
 10
481.760437
 20
658.823608
 11
479.650604
 21
665.595703
  0
CIRCLE
  8
LC-003-002-----0
 62
     1
  6
CONTINUOUS
 10
471.260437
 20
665.201172
 40
3.000000
  0
ARC
  8
LC-003-002-----0
 62
     1
  6
CONTINUOUS
 10
656.736450
 20
665.821838
 40
2.000000
 50
0.000000
 51
90.000003
  0
CIRCLE
  8
LC-003-002-----0
 62
     1
  6
CONTINUOUS
 10
454.760437
 20
665.201172
 40
3.000000
  0
ARC
  8
LC-003-002-----0
 62
     1
  6
CONTINUOUS
 10
452.671570
 20
663.632568
 40
6.600000
 50
100.242964
 51
162.695707
  0
ARC
  8
LC-003-002-----0
 62
     1
  6
CONTINUOUS
 10
473.349335
 20
663.632568
 40
6.600000
 50
17.304295
 51
79.757034
  0
LINE
  8
LC-004-006-----0
 62
     2
  6
DASHDOT
 10
618.736450
 20
591.658447
 11
618.736450
 21
568.098389
  0
LINE
  8
LC-004-006-----0
 62
     2
  6
DASHDOT
 10
668.736450
 20
591.658447
 11
668.736450
 21
568.098389
  0
LINE
  8
LC-006-012-----0
 62
     2
  6
DASHED
 10
673.236450
 20
586.821838
 11
673.236450
 21
572.821838
  0
LINE
  8
LC-006-012-----0
 62
     2
  6
DASHED
 10
664.236450
 20
586.821838
 11
664.236450
 21
572.821838
  0
LINE
  8
LC-003-002-----0
 62
     1
  6
CONTINUOUS
 10
605.086426
 20
671.801147
 11
607.736450
 21
671.801147
  0
LINE
  8
LC-006-012-----0
 62
     2
  6
DASHED
 10
614.236450
 20
586.821838
 11
614.236450
 21
572.821838
  0
LINE
  8
LC-006-012-----0
 62
     2
  6
DASHED
 10
623.236450
 20
586.821838
 11
623.236450
 21
572.821838
  0
ARC
  8
LC-003-002-----0
 62
     1
  6
CONTINUOUS
 10
609.736450
 20
576.821838
 40
2.000000
 50
180.000009
 51
239.999997
  0
ARC
  8
LC-003-002-----0
 62
     1
  6
CONTINUOUS
 10
677.736450
 20
576.821838
 40
2.000000
 50
299.999998
 51
0.000000
  0
LINE
  8
LC-003-002-----0
 62
     1
  6
CONTINUOUS
 10
605.086426
 20
577.971802
 11
607.736450
 21
577.971802
  0
LINE
  8
LC-003-002-----0
 62
     1
  6
CONTINUOUS
 10
605.086426
 20
577.971802
 11
605.086426
 21
671.801147
  0
LINE
  8
LC-003-002-----0
 62
     1
  6
CONTINUOUS
 10
607.736450
 20
668.821838
 11
607.736450
 21
671.801147
  0
LINE
  8
LC-003-002-----0
 62
     1
  6
CONTINUOUS
 10
605.086426
 20
658.823608
 11
607.736450
 21
658.823608
  0
LINE
  8
LC-003-002-----0
 62
     1
  6
CONTINUOUS
 10
398.010437
 20
483.049591
 11
398.010437
 21
417.049591
  0
LINE
  8
LC-003-002-----0
 62
     1
  6
CONTINUOUS
 10
682.386414
 20
671.801147
 11
679.736450
 21
671.801147
  0
LINE
  8
LC-003-002-----0
 62
     1
  6
CONTINUOUS
 10
682.386414
 20
577.971802
 11
679.736450
 21
577.971802
  0
LINE
  8
LC-003-002-----0
 62
     1
  6
CONTINUOUS
 10
682.386414
 20
577.971802
 11
682.386414
 21
671.801147
  0
LINE
  8
LC-003-002-----0
 62
     1
  6
CONTINUOUS
 10
679.736450
 20
668.821838
 11
679.736450
 21
671.801147
  0
LINE
  8
LC-003-002-----0
 62
     1
  6
CONTINUOUS
 10
682.386414
 20
658.823608
 11
679.736450
 21
658.823608
  0
LINE
  8
LC-003-002-----0
 62
     1
  6
CONTINUOUS
 10
400.010437
 20
415.049591
 11
415.278381
 21
415.049591
  0
LINE
  8
LC-003-002-----0
 62
     1
  6
CONTINUOUS
 10
595.736450
 20
660.321838
 11
605.086426
 21
660.321838
  0
LINE
  8
LC-003-002-----0
 62
     1
  6
CONTINUOUS
 10
595.736450
 20
585.321838
 11
605.086426
 21
585.321838
  0
LINE
  8
LC-003-002-----0
 62
     1
  6
CONTINUOUS
 10
693.736450
 20
587.321838
 11
693.736450
 21
658.321838
  0
LINE
  8
LC-003-002-----0
 62
     1
  6
CONTINUOUS
 10
593.736450
 20
587.321838
 11
593.736450
 21
658.321838
  0
ARC
  8
LC-003-002-----0
 62
     1
  6
CONTINUOUS
 10
595.736450
 20
658.321838
 40
2.000000
 50
90.000003
 51
180.000009
  0
ARC
  8
LC-003-002-----0
 62
     1
  6
CONTINUOUS
 10
595.736450
 20
587.321838
 40
2.000000
 50
180.000009
 51
269.999997
  0
ARC
  8
LC-003-002-----0
 62
     1
  6
CONTINUOUS
 10
691.736450
 20
587.321838
 40
2.000000
 50
269.999997
 51
0.000000
  0
ARC
  8
LC-003-002-----0
 62
     1
  6
CONTINUOUS
 10
691.736450
 20
658.321838
 40
2.000000
 50
0.000000
 51
90.000003
  0
LINE
  8
LC-003-002-----0
 62
     1
  6
CONTINUOUS
 10
528.010437
 20
483.049591
 11
528.010437
 21
417.049591
  0
LINE
  8
LC-006-012-----0
 62
     2
  6
DASHED
 10
605.086426
 20
660.321838
 11
682.386414
 21
660.321838
  0
LINE
  8
LC-006-012-----0
 62
     2
  6
DASHED
 10
605.086426
 20
585.321838
 11
682.386414
 21
585.321838
  0
LINE
  8
LC-003-002-----0
 62
     1
  6
CONTINUOUS
 10
682.386414
 20
585.321838
 11
691.736450
 21
585.321838
  0
LINE
  8
LC-003-002-----0
 62
     1
  6
CONTINUOUS
 10
682.386414
 20
660.321838
 11
691.736450
 21
660.321838
  0
LINE
  8
LC-003-002-----0
 62
     1
  6
CONTINUOUS
 10
571.927917
 20
647.821838
 11
593.736450
 21
647.821838
  0
LINE
  8
LC-003-002-----0
 62
     1
  6
CONTINUOUS
 10
574.685303
 20
597.821838
 11
593.736450
 21
597.821838
  0
LINE
  8
LC-004-006-----0
 62
     2
  6
DASHDOT
 10
569.338135
 20
622.821838
 11
719.151978
 21
622.821838
  0
LINE
  8
LC-001-150-----0
 62
     2
  6
CONTINUOUS
 10
574.685303
 20
597.821838
 11
575.618225
 21
608.736694
  0
LINE
  8
LC-001-150-----0
 62
     2
  6
CONTINUOUS
 10
575.618225
 20
608.736694
 11
571.927917
 21
634.915405
  0
LINE
  8
LC-001-150-----0
 62
     2
  6
CONTINUOUS
 10
571.927917
 20
634.915405
 11
571.927917
 21
647.821838
  0
LINE
  8
LC-001-150-----0
 62
     2
  6
CONTINUOUS
 10
712.218506
 20
597.821838
 11
714.630066
 21
610.549927
  0
LINE
  8
LC-001-150-----0
 62
     2
  6
CONTINUOUS
 10
714.630066
 20
610.549927
 11
713.359985
 21
633.880554
  0
LINE
  8
LC-001-150-----0
 62
     2
  6
CONTINUOUS
 10
713.359985
 20
633.880554
 11
713.993103
 21
647.821838
  0
LINE
  8
LC-006-012-----0
 62
     2
  6
DASHED
 10
593.736450
 20
647.821838
 11
693.736450
 21
647.821838
  0
LINE
  8
LC-006-012-----0
 62
     2
  6
DASHED
 10
593.736450
 20
597.821838
 11
693.736450
 21
597.821838
  0
LINE
  8
LC-003-002-----0
 62
     1
  6
CONTINUOUS
 10
693.736450
 20
597.821838
 11
712.218506
 21
597.821838
  0
LINE
  8
LC-003-002-----0
 62
     1
  6
CONTINUOUS
 10
693.736450
 20
647.821838
 11
713.993103
 21
647.821838
  0
LINE
  8
LC-003-002-----0
 62
     1
  6
CONTINUOUS
 10
400.010437
 20
485.049591
 11
415.278381
 21
485.049591
  0
LINE
  8
LC-004-006-----0
 62
     2
  6
DASHDOT
 10
392.175079
 20
450.049591
 11
533.932922
 21
450.049591
  0
ARC
  8
LC-003-002-----0
 62
     1
  6
CONTINUOUS
 10
400.010437
 20
483.049591
 40
2.000000
 50
90.000003
 51
180.000009
  0
ARC
  8
LC-003-002-----0
 62
     1
  6
CONTINUOUS
 10
400.010437
 20
417.049591
 40
2.000000
 50
180.000009
 51
269.999997
  0
ARC
  8
LC-003-002-----0
 62
     1
  6
CONTINUOUS
 10
526.010437
 20
417.049591
 40
2.000000
 50
269.999997
 51
0.000000
  0
ARC
  8
LC-003-002-----0
 62
     1
  6
CONTINUOUS
 10
526.010437
 20
483.049591
 40
2.000000
 50
0.000000
 51
90.000003
  0
LINE
  8
LC-003-002-----0
 62
     1
  6
CONTINUOUS
 10
398.010437
 20
465.049591
 11
528.010437
 21
465.049591
  0
LINE
  8
LC-003-002-----0
 62
     1
  6
CONTINUOUS
 10
398.010437
 20
435.049591
 11
528.010437
 21
435.049591
  0
LINE
  8
LC-003-002-----0
 62
     1
  6
CONTINUOUS
 10
405.104645
 20
463.049591
 11
405.104645
 21
437.049591
  0
ARC
  8
LC-003-002-----0
 62
     1
  6
CONTINUOUS
 10
407.104645
 20
437.049591
 40
2.000000
 50
180.000009
 51
269.999997
  0
ARC
  8
LC-003-002-----0
 62
     1
  6
CONTINUOUS
 10
407.104645
 20
463.049591
 40
2.000000
 50
90.000003
 51
180.000009
  0
LINE
  8
LC-003-002-----0
 62
     1
  6
CONTINUOUS
 10
415.010437
 20
484.049591
 11
415.010437
 21
467.049591
  0
LINE
  8
LC-003-002-----0
 62
     1
  6
CONTINUOUS
 10
511.010437
 20
484.049591
 11
511.010437
 21
467.049591
  0
LINE
  8
LC-003-002-----0
 62
     1
  6
CONTINUOUS
 10
417.010437
 20
486.049591
 11
509.010437
 21
486.049591
  0
LINE
  8
LC-003-002-----0
 62
     1
  6
CONTINUOUS
 10
417.010437
 20
414.049591
 11
509.010437
 21
414.049591
  0
ARC
  8
LC-003-002-----0
 62
     1
  6
CONTINUOUS
 10
417.010437
 20
484.049591
 40
2.000000
 50
90.000003
 51
180.000009
  0
ARC
  8
LC-003-002-----0
 62
     1
  6
CONTINUOUS
 10
509.010437
 20
484.049591
 40
2.000000
 50
0.000000
 51
90.000003
  0
ARC
  8
LC-003-002-----0
 62
     1
  6
CONTINUOUS
 10
509.010437
 20
416.049591
 40
2.000000
 50
269.999997
 51
0.000000
  0
ARC
  8
LC-003-002-----0
 62
     1
  6
CONTINUOUS
 10
417.010437
 20
416.049591
 40
2.000000
 50
180.000009
 51
269.999997
  0
LINE
  8
LC-006-012-----0
 62
     2
  6
DASHED
 10
415.278381
 20
485.049591
 11
510.742493
 21
485.049591
  0
LINE
  8
LC-003-002-----0
 62
     1
  6
CONTINUOUS
 10
510.742493
 20
485.049591
 11
526.010437
 21
485.049591
  0
LINE
  8
LC-006-012-----0
 62
     2
  6
DASHED
 10
415.278381
 20
415.049591
 11
510.742493
 21
415.049591
  0
LINE
  8
LC-003-002-----0
 62
     1
  6
CONTINUOUS
 10
510.742493
 20
415.049591
 11
526.010437
 21
415.049591
  0
LINE
  8
LC-003-002-----0
 62
     1
  6
CONTINUOUS
 10
415.010437
 20
433.049591
 11
415.010437
 21
416.049591
  0
LINE
  8
LC-003-002-----0
 62
     1
  6
CONTINUOUS
 10
511.010437
 20
433.049591
 11
511.010437
 21
416.049591
  0
ARC
  8
LC-003-002-----0
 62
     1
  6
CONTINUOUS
 10
413.010437
 20
467.049591
 40
2.000000
 50
269.999997
 51
0.000000
  0
ARC
  8
LC-003-002-----0
 62
     1
  6
CONTINUOUS
 10
413.010437
 20
433.049591
 40
2.000000
 50
0.000000
 51
90.000003
  0
ARC
  8
LC-003-002-----0
 62
     1
  6
CONTINUOUS
 10
513.010437
 20
467.049591
 40
2.000000
 50
180.000009
 51
269.999997
  0
ARC
  8
LC-003-002-----0
 62
     1
  6
CONTINUOUS
 10
513.010437
 20
433.049591
 40
2.000000
 50
90.000003
 51
180.000009
  0
LINE
  8
LC-004-006-----0
 62
     2
  6
DASHDOT
 10
409.010437
 20
481.956635
 11
409.010437
 21
467.555725
  0
LINE
  8
LC-004-006-----0
 62
     2
  6
DASHDOT
 10
402.272003
 20
475.049591
 11
416.343719
 21
475.049591
  0
CIRCLE
  8
LC-003-002-----0
 62
     1
  6
CONTINUOUS
 10
409.010437
 20
475.049591
 40
4.500000
  0
LINE
  8
LC-004-006-----0
 62
     2
  6
DASHDOT
 10
409.010437
 20
418.142548
 11
409.010437
 21
432.543457
  0
LINE
  8
LC-004-006-----0
 62
     2
  6
DASHDOT
 10
402.272003
 20
425.049591
 11
416.343719
 21
425.049591
  0
CIRCLE
  8
LC-003-002-----0
 62
     1
  6
CONTINUOUS
 10
409.010437
 20
425.049591
 40
4.500000
  0
LINE
  8
LC-004-006-----0
 62
     2
  6
DASHDOT
 10
517.010437
 20
481.956635
 11
517.010437
 21
467.555725
  0
LINE
  8
LC-004-006-----0
 62
     2
  6
DASHDOT
 10
523.748901
 20
475.049591
 11
509.677124
 21
475.049591
  0
CIRCLE
  8
LC-003-002-----0
 62
     1
  6
CONTINUOUS
 10
517.010437
 20
475.049591
 40
4.500000
  0
LINE
  8
LC-004-006-----0
 62
     2
  6
DASHDOT
 10
517.010437
 20
418.142548
 11
517.010437
 21
432.543457
  0
LINE
  8
LC-004-006-----0
 62
     2
  6
DASHDOT
 10
523.748901
 20
425.049591
 11
509.677124
 21
425.049591
  0
CIRCLE
  8
LC-003-002-----0
 62
     1
  6
CONTINUOUS
 10
517.010437
 20
425.049591
 40
4.500000
  0
LINE
  8
LC-003-002-----0
 62
     1
  6
CONTINUOUS
 10
425.510437
 20
498.049591
 11
425.510437
 21
488.699585
  0
LINE
  8
LC-003-002-----0
 62
     1
  6
CONTINUOUS
 10
500.510437
 20
498.049591
 11
500.510437
 21
488.699585
  0
LINE
  8
LC-003-002-----0
 62
     1
  6
CONTINUOUS
 10
427.510437
 20
500.049591
 11
498.510437
 21
500.049591
  0
LINE
  8
LC-003-002-----0
 62
     1
  6
CONTINUOUS
 10
427.510437
 20
400.049591
 11
498.510437
 21
400.049591
  0
ARC
  8
LC-003-002-----0
 62
     1
  6
CONTINUOUS
 10
427.510437
 20
498.049591
 40
2.000000
 50
90.000003
 51
180.000009
  0
ARC
  8
LC-003-002-----0
 62
     1
  6
CONTINUOUS
 10
498.510437
 20
498.049591
 40
2.000000
 50
0.000000
 51
90.000003
  0
ARC
  8
LC-003-002-----0
 62
     1
  6
CONTINUOUS
 10
498.510437
 20
402.049591
 40
2.000000
 50
269.999997
 51
0.000000
  0
ARC
  8
LC-003-002-----0
 62
     1
  6
CONTINUOUS
 10
427.510437
 20
402.049591
 40
2.000000
 50
180.000009
 51
269.999997
  0
LINE
  8
LC-006-012-----0
 62
     2
  6
DASHED
 10
425.510437
 20
488.699585
 11
425.510437
 21
411.399597
  0
LINE
  8
LC-006-012-----0
 62
     2
  6
DASHED
 10
500.510437
 20
488.699585
 11
500.510437
 21
411.399597
  0
LINE
  8
LC-003-002-----0
 62
     1
  6
CONTINUOUS
 10
500.510437
 20
411.399597
 11
500.510437
 21
402.049591
  0
LINE
  8
LC-003-002-----0
 62
     1
  6
CONTINUOUS
 10
425.510437
 20
411.399597
 11
425.510437
 21
402.049591
  0
LINE
  8
LC-003-002-----0
 62
     1
  6
CONTINUOUS
 10
438.010437
 20
519.594421
 11
438.010437
 21
500.049591
  0
LINE
  8
LC-001-150-----0
 62
     2
  6
CONTINUOUS
 10
438.010437
 20
519.594421
 11
452.643280
 21
517.394653
  0
LINE
  8
LC-001-150-----0
 62
     2
  6
CONTINUOUS
 10
452.643280
 20
517.394653
 11
475.773315
 21
519.873901
  0
LINE
  8
LC-001-150-----0
 62
     2
  6
CONTINUOUS
 10
475.773315
 20
519.873901
 11
488.010437
 21
519.614929
  0
LINE
  8
LC-004-006-----0
 62
     2
  6
DASHDOT
 10
463.010437
 20
524.165588
 11
463.010437
 21
375.044830
  0
LINE
  8
LC-001-150-----0
 62
     2
  6
CONTINUOUS
 10
438.010437
 20
380.504761
 11
452.643280
 21
382.704529
  0
LINE
  8
LC-001-150-----0
 62
     2
  6
CONTINUOUS
 10
452.643280
 20
382.704529
 11
475.773315
 21
380.225281
  0
LINE
  8
LC-001-150-----0
 62
     2
  6
CONTINUOUS
 10
475.773315
 20
380.225281
 11
488.010437
 21
380.484283
  0
LINE
  8
LC-006-012-----0
 62
     2
  6
DASHED
 10
438.010437
 20
500.049591
 11
438.010437
 21
400.049591
  0
LINE
  8
LC-003-002-----0
 62
     1
  6
CONTINUOUS
 10
488.010437
 20
519.614929
 11
488.010437
 21
500.049561
  0
LINE
  8
LC-006-012-----0
 62
     2
  6
DASHED
 10
488.010437
 20
500.049591
 11
488.010437
 21
400.049591
  0
LINE
  8
LC-003-002-----0
 62
     1
  6
CONTINUOUS
 10
438.010437
 20
400.049591
 11
438.010437
 21
380.504761
  0
LINE
  8
LC-003-002-----0
 62
     1
  6
CONTINUOUS
 10
488.010437
 20
400.049591
 11
488.010437
 21
380.484283
  0
LINE
  8
LC-003-002-----0
 62
     1
  6
CONTINUOUS
 10
420.469910
 20
488.699585
 11
420.469910
 21
486.049591
  0
LINE
  8
LC-003-002-----0
 62
     1
  6
CONTINUOUS
 10
460.760437
 20
488.699585
 11
460.760437
 21
486.049591
  0
LINE
  8
LC-003-002-----0
 62
     1
  6
CONTINUOUS
 10
465.260437
 20
488.699585
 11
465.260437
 21
486.049591
  0
LINE
  8
LC-003-002-----0
 62
     1
  6
CONTINUOUS
 10
505.550964
 20
488.699585
 11
505.550964
 21
486.049591
  0
LINE
  8
LC-003-002-----0
 62
     1
  6
CONTINUOUS
 10
420.469910
 20
488.699585
 11
505.550964
 21
488.699585
  0
LINE
  8
LC-003-002-----0
 62
     1
  6
CONTINUOUS
 10
420.469910
 20
411.399597
 11
420.469910
 21
414.049591
  0
LINE
  8
LC-003-002-----0
 62
     1
  6
CONTINUOUS
 10
460.760437
 20
411.399597
 11
460.760437
 21
414.049591
  0
LINE
  8
LC-003-002-----0
 62
     1
  6
CONTINUOUS
 10
465.260437
 20
411.399597
 11
465.260437
 21
414.049591
  0
LINE
  8
LC-003-002-----0
 62
     1
  6
CONTINUOUS
 10
505.550964
 20
411.399597
 11
505.550964
 21
414.049591
  0
LINE
  8
LC-003-002-----0
 62
     1
  6
CONTINUOUS
 10
420.469910
 20
411.399597
 11
505.550964
 21
411.399597
  0
LINE
  8
LC-003-002-----0
 62
     1
  6
CONTINUOUS
 10
430.761414
 20
462.549591
 11
430.761414
 21
437.549591
  0
ARC
  8
LC-003-002-----0
 62
     1
  6
CONTINUOUS
 10
433.261414
 20
462.549591
 40
2.500000
 50
90.000003
 51
180.000009
  0
ARC
  8
LC-003-002-----0
 62
     1
  6
CONTINUOUS
 10
433.261414
 20
437.549591
 40
2.500000
 50
180.000009
 51
269.999997
  0
ENDSEC
  0
EOF
