  0
SECTION
  2
HEADER
  9
$LIMMIN
 10
-105.965118
 20
533.035339
  9
$LIMMAX
 10
-5.925710
 20
661.205811
  9
$EXTMIN
 10
-105.965118
 20
533.035339
  9
$EXTMAX
 10
-5.925710
 20
661.205811
  0
ENDSEC
  0
SECTION
  2
TABLES
  0
TABLE
  2
LTYPE
 70
     3
  0
LTYPE
  2
CONTINUOUS
 70
    64
  3
Ausgezogene Linie
 72
    65
 73
     0
 40
0.0
  0
LTYPE
  2
DASHED
 70
    64
  3
__ __ __ __ __ __ __ __ __ __ __ __ __ __ __
 72
    65
 73
     2
 40
0.75
 49
0.5
 49
-0.25
  0
LTYPE
  2
DASHDOT
 70
    64
  3
__ . __ . __ . __ . __ . __ . __ . __ . __ . __
 72
    65
 73
     4
 40
1.0
 49
0.5
 49
-0.25
 49
0.0
 49
-0.25
  0
ENDTAB
  0
TABLE
  2
LAYER
 70
     4
  0
LAYER
  2
LC-003-002-----0
 70
    64
 62
     7
  6
CONTINUOUS
  0
LAYER
  2
LC-004-006-----0
 70
    64
 62
     7
  6
CONTINUOUS
  0
LAYER
  2
LC-006-012-----0
 70
    64
 62
     7
  6
CONTINUOUS
  0
LAYER
  2
LC-001-150-----0
 70
    64
 62
     7
  6
CONTINUOUS
  0
ENDTAB
  0
TABLE
  2
STYLE
 70
     1
  0
STYLE
  2
TXT8
 70
    64
 40
0.0
 41
1.0
 50
0.0
 71
     0
 42
3.500000
  3
TXT8
  4

  0
ENDTAB
  0
ENDSEC
  0
SECTION
  2
BLOCKS
  0
ENDSEC
  0
SECTION
  2
ENTITIES
  0
LINE
  8
LC-003-002-----0
 62
     1
  6
CONTINUOUS
 10
-103.553192
 20
631.246826
 11
-71.553192
 21
631.246826
  0
LINE
  8
LC-003-002-----0
 62
     1
  6
CONTINUOUS
 10
-71.553192
 20
631.246826
 11
-71.553192
 21
635.246826
  0
LINE
  8
LC-003-002-----0
 62
     1
  6
CONTINUOUS
 10
-103.553192
 20
631.246826
 11
-103.553192
 21
635.246826
  0
LINE
  8
LC-003-002-----0
 62
     1
  6
CONTINUOUS
 10
-102.553192
 20
636.246826
 11
-96.227867
 21
636.246826
  0
LINE
  8
LC-004-006-----0
 62
     2
  6
DASHDOT
 10
-100.864700
 20
646.246826
 11
-74.628464
 21
646.246826
  0
LINE
  8
LC-004-006-----0
 62
     2
  6
DASHDOT
 10
-87.553192
 20
629.417908
 11
-87.553192
 21
661.205811
  0
CIRCLE
  8
LC-003-002-----0
 62
     1
  6
CONTINUOUS
 10
-87.553192
 20
646.246826
 40
4.000000
  0
CIRCLE
  8
LC-003-002-----0
 62
     1
  6
CONTINUOUS
 10
-87.553192
 20
646.246826
 40
8.000000
  0
LINE
  8
LC-004-006-----0
 62
     2
  6
DASHDOT
 10
-75.053192
 20
629.417908
 11
-75.053192
 21
637.694580
  0
ARC
  8
LC-003-002-----0
 62
     1
  6
CONTINUOUS
 10
-87.553192
 20
646.246826
 40
11.500000
 50
159.645590
 51
154.228540
  0
LINE
  8
LC-003-002-----0
 62
     1
  6
CONTINUOUS
 10
-74.916161
 20
649.297302
 11
-71.581116
 21
635.481445
  0
ARC
  8
LC-003-002-----0
 62
     1
  6
CONTINUOUS
 10
-96.227867
 20
637.246826
 40
1.000000
 50
269.999997
 51
46.054480
  0
LINE
  8
LC-003-002-----0
 62
     1
  6
CONTINUOUS
 10
-100.803421
 20
656.246826
 11
-96.213448
 21
656.246826
  0
ARC
  8
LC-003-002-----0
 62
     1
  6
CONTINUOUS
 10
-87.553192
 20
646.246826
 40
13.000000
 50
13.571189
 51
128.213210
  0
LINE
  8
LC-006-012-----0
 62
     2
  6
DASHED
 10
-73.353188
 20
631.246826
 11
-73.353188
 21
636.246826
  0
LINE
  8
LC-006-012-----0
 62
     2
  6
DASHED
 10
-76.753189
 20
631.246826
 11
-76.753189
 21
636.246826
  0
LINE
  8
LC-004-006-----0
 62
     2
  6
DASHDOT
 10
-100.053192
 20
629.417908
 11
-100.053192
 21
637.694580
  0
LINE
  8
LC-006-012-----0
 62
     2
  6
DASHED
 10
-101.753189
 20
631.246826
 11
-101.753189
 21
636.246826
  0
LINE
  8
LC-006-012-----0
 62
     2
  6
DASHED
 10
-98.353188
 20
631.246826
 11
-98.353188
 21
636.246826
  0
CIRCLE
  8
LC-003-002-----0
 62
     1
  6
CONTINUOUS
 10
-87.553192
 20
646.246826
 40
7.000000
  0
ARC
  8
LC-003-002-----0
 62
     1
  6
CONTINUOUS
 10
-78.878517
 20
637.246826
 40
1.000000
 50
133.945515
 51
269.999997
  0
LINE
  8
LC-003-002-----0
 62
     1
  6
CONTINUOUS
 10
-78.878517
 20
636.246826
 11
-72.553192
 21
636.246826
  0
LINE
  8
LC-003-002-----0
 62
     1
  6
CONTINUOUS
 10
-19.124128
 20
636.246826
 11
-19.124128
 21
657.746826
  0
LINE
  8
LC-003-002-----0
 62
     1
  6
CONTINUOUS
 10
-33.124130
 20
636.246826
 11
-33.124130
 21
657.746826
  0
LINE
  8
LC-003-002-----0
 62
     1
  6
CONTINUOUS
 10
-38.124130
 20
654.246826
 11
-34.224129
 21
654.246826
  0
ARC
  8
LC-003-002-----0
 62
     1
  6
CONTINUOUS
 10
-72.553192
 20
635.246826
 40
1.000000
 50
0.000000
 51
90.000003
  0
LINE
  8
LC-003-002-----0
 62
     1
  6
CONTINUOUS
 10
-40.124130
 20
631.246826
 11
-12.124128
 21
631.246826
  0
LINE
  8
LC-003-002-----0
 62
     1
  6
CONTINUOUS
 10
-38.124130
 20
638.246826
 11
-34.224129
 21
638.246826
  0
LINE
  8
LC-003-002-----0
 62
     1
  6
CONTINUOUS
 10
-13.624129
 20
638.746826
 11
-13.624129
 21
653.746826
  0
LINE
  8
LC-003-002-----0
 62
     1
  6
CONTINUOUS
 10
-103.549385
 20
635.333984
 11
-102.244682
 21
650.246826
  0
ARC
  8
LC-003-002-----0
 62
     1
  6
CONTINUOUS
 10
-102.553192
 20
635.246826
 40
1.000000
 50
90.000003
 51
180.000009
  0
ARC
  8
LC-003-002-----0
 62
     1
  6
CONTINUOUS
 10
-100.803421
 20
655.246826
 40
1.000000
 50
90.000003
 51
175.000006
  0
ARC
  8
LC-003-002-----0
 62
     1
  6
CONTINUOUS
 10
-96.213448
 20
657.246826
 40
1.000000
 50
269.999997
 51
308.213212
  0
LINE
  8
LC-003-002-----0
 62
     1
  6
CONTINUOUS
 10
-38.624130
 20
638.746826
 11
-38.624130
 21
653.746826
  0
LINE
  8
LC-003-002-----0
 62
     1
  6
CONTINUOUS
 10
-12.124129
 20
631.246826
 11
-12.124129
 21
635.246826
  0
LINE
  8
LC-003-002-----0
 62
     1
  6
CONTINUOUS
 10
-29.624128
 20
659.246826
 11
-22.624128
 21
659.246826
  0
LINE
  8
LC-004-006-----0
 62
     2
  6
DASHDOT
 10
-26.124128
 20
628.440552
 11
-26.124128
 21
661.037292
  0
LINE
  8
LC-004-006-----0
 62
     2
  6
DASHDOT
 10
-46.565456
 20
646.246826
 11
-5.925710
 21
646.246826
  0
LINE
  8
LC-003-002-----0
 62
     1
  6
CONTINUOUS
 10
-39.124130
 20
636.246826
 11
-13.124128
 21
636.246826
  0
LINE
  8
LC-003-002-----0
 62
     1
  6
CONTINUOUS
 10
-40.124130
 20
631.246826
 11
-40.124130
 21
635.246826
  0
LINE
  8
LC-004-006-----0
 62
     2
  6
DASHDOT
 10
-36.124130
 20
629.417908
 11
-36.124130
 21
637.694580
  0
LINE
  8
LC-004-006-----0
 62
     2
  6
DASHDOT
 10
-16.124128
 20
629.417908
 11
-16.124128
 21
637.694580
  0
LINE
  8
LC-006-012-----0
 62
     2
  6
DASHED
 10
-14.424129
 20
631.246826
 11
-14.424129
 21
636.246826
  0
LINE
  8
LC-006-012-----0
 62
     2
  6
DASHED
 10
-17.824129
 20
631.246826
 11
-17.824129
 21
636.246826
  0
LINE
  8
LC-006-012-----0
 62
     2
  6
DASHED
 10
-37.824127
 20
631.246826
 11
-37.824127
 21
636.246826
  0
LINE
  8
LC-006-012-----0
 62
     2
  6
DASHED
 10
-34.424129
 20
631.246826
 11
-34.424129
 21
636.246826
  0
ARC
  8
LC-003-002-----0
 62
     1
  6
CONTINUOUS
 10
-87.553192
 20
645.696838
 40
9.250000
 50
124.018422
 51
55.981576
  0
LINE
  8
LC-003-002-----0
 62
     1
  6
CONTINUOUS
 10
-22.124128
 20
636.746826
 11
-22.124128
 21
650.246826
  0
LINE
  8
LC-003-002-----0
 62
     1
  6
CONTINUOUS
 10
-30.124128
 20
636.746826
 11
-30.124128
 21
650.246826
  0
ARC
  8
LC-003-002-----0
 62
     1
  6
CONTINUOUS
 10
-30.624128
 20
636.746826
 40
0.500000
 50
269.999997
 51
0.000000
  0
ARC
  8
LC-003-002-----0
 62
     1
  6
CONTINUOUS
 10
-21.624128
 20
636.746826
 40
0.500000
 50
180.000009
 51
269.999997
  0
ARC
  8
LC-003-002-----0
 62
     1
  6
CONTINUOUS
 10
-30.624128
 20
658.246826
 40
0.500000
 50
269.999997
 51
0.000000
  0
ARC
  8
LC-003-002-----0
 62
     1
  6
CONTINUOUS
 10
-21.624128
 20
658.246826
 40
0.500000
 50
180.000009
 51
269.999997
  0
LINE
  8
LC-003-002-----0
 62
     1
  6
CONTINUOUS
 10
-92.728188
 20
653.363770
 11
-92.100746
 21
655.651978
  0
LINE
  8
LC-003-002-----0
 62
     1
  6
CONTINUOUS
 10
-90.702789
 20
656.971985
 11
-88.103188
 21
657.526917
  0
LINE
  8
LC-003-002-----0
 62
     1
  6
CONTINUOUS
 10
-88.103188
 20
654.227905
 11
-88.103188
 21
657.526917
  0
LINE
  8
LC-003-002-----0
 62
     1
  6
CONTINUOUS
 10
-87.003189
 20
654.227905
 11
-87.003189
 21
657.526917
  0
LINE
  8
LC-003-002-----0
 62
     1
  6
CONTINUOUS
 10
-87.003189
 20
657.526917
 11
-84.403595
 21
656.971985
  0
LINE
  8
LC-003-002-----0
 62
     1
  6
CONTINUOUS
 10
-82.378189
 20
653.363770
 11
-83.005638
 21
655.651978
  0
CIRCLE
  8
LC-003-002-----0
 62
     1
  6
CONTINUOUS
 10
-85.303192
 20
655.676880
 40
0.850000
  0
CIRCLE
  8
LC-003-002-----0
 62
     1
  6
CONTINUOUS
 10
-89.803192
 20
655.676880
 40
0.850000
  0
ARC
  8
LC-003-002-----0
 62
     1
  6
CONTINUOUS
 10
-90.316605
 20
655.162781
 40
1.850000
 50
102.049153
 51
164.665984
  0
ARC
  8
LC-003-002-----0
 62
     1
  6
CONTINUOUS
 10
-84.789780
 20
655.162781
 40
1.850000
 50
15.334014
 51
77.950845
  0
LINE
  8
LC-003-002-----0
 62
     1
  6
CONTINUOUS
 10
-33.124130
 20
657.746826
 11
-30.624126
 21
657.746826
  0
LINE
  8
LC-003-002-----0
 62
     1
  6
CONTINUOUS
 10
-19.124128
 20
657.746826
 11
-21.624128
 21
657.746826
  0
ARC
  8
LC-003-002-----0
 62
     1
  6
CONTINUOUS
 10
-39.124130
 20
635.246826
 40
1.000000
 50
90.000003
 51
180.000009
  0
ARC
  8
LC-003-002-----0
 62
     1
  6
CONTINUOUS
 10
-13.124129
 20
635.246826
 40
1.000000
 50
0.000000
 51
90.000003
  0
ARC
  8
LC-003-002-----0
 62
     1
  6
CONTINUOUS
 10
-38.124130
 20
653.746826
 40
0.500000
 50
90.000003
 51
180.000009
  0
ARC
  8
LC-003-002-----0
 62
     1
  6
CONTINUOUS
 10
-38.124130
 20
638.746826
 40
0.500000
 50
180.000009
 51
269.999997
  0
ARC
  8
LC-003-002-----0
 62
     1
  6
CONTINUOUS
 10
-14.124129
 20
638.746826
 40
0.500000
 50
269.999997
 51
0.000000
  0
ARC
  8
LC-003-002-----0
 62
     1
  6
CONTINUOUS
 10
-14.124129
 20
653.746826
 40
0.500000
 50
0.000000
 51
90.000003
  0
LINE
  8
LC-006-012-----0
 62
     2
  6
DASHED
 10
-34.224129
 20
654.246826
 11
-19.124128
 21
654.246826
  0
LINE
  8
LC-003-002-----0
 62
     1
  6
CONTINUOUS
 10
-18.024130
 20
654.246826
 11
-14.124128
 21
654.246826
  0
LINE
  8
LC-006-012-----0
 62
     2
  6
DASHED
 10
-34.357368
 20
638.246826
 11
-18.024128
 21
638.246826
  0
LINE
  8
LC-003-002-----0
 62
     1
  6
CONTINUOUS
 10
-18.024130
 20
638.246826
 11
-14.124128
 21
638.246826
  0
LINE
  8
LC-003-002-----0
 62
     1
  6
CONTINUOUS
 10
-45.424690
 20
650.246826
 11
-38.624130
 21
650.246826
  0
LINE
  8
LC-003-002-----0
 62
     1
  6
CONTINUOUS
 10
-45.233074
 20
642.246826
 11
-38.624130
 21
642.246826
  0
LINE
  8
LC-001-150-----0
 62
     2
  6
CONTINUOUS
 10
-45.233074
 20
642.246826
 11
-44.928310
 21
644.820313
  0
LINE
  8
LC-001-150-----0
 62
     2
  6
CONTINUOUS
 10
-44.928310
 20
644.820313
 11
-45.424690
 21
650.246826
  0
LINE
  8
LC-001-150-----0
 62
     2
  6
CONTINUOUS
 10
-7.640892
 20
642.246826
 11
-7.081344
 21
644.965515
  0
LINE
  8
LC-001-150-----0
 62
     2
  6
CONTINUOUS
 10
-7.081344
 20
644.965515
 11
-7.428123
 21
650.246826
  0
LINE
  8
LC-006-012-----0
 62
     2
  6
DASHED
 10
-38.624130
 20
650.246826
 11
-13.624128
 21
650.246826
  0
LINE
  8
LC-003-002-----0
 62
     1
  6
CONTINUOUS
 10
-13.624129
 20
650.246826
 11
-7.428123
 21
650.246826
  0
LINE
  8
LC-006-012-----0
 62
     2
  6
DASHED
 10
-38.624130
 20
642.246826
 11
-13.624128
 21
642.246826
  0
LINE
  8
LC-003-002-----0
 62
     1
  6
CONTINUOUS
 10
-13.624129
 20
642.246826
 11
-7.640892
 21
642.246826
  0
LINE
  8
LC-003-002-----0
 62
     1
  6
CONTINUOUS
 10
-34.224129
 20
636.446838
 11
-34.224129
 21
657.526917
  0
LINE
  8
LC-003-002-----0
 62
     1
  6
CONTINUOUS
 10
-34.224129
 20
636.446838
 11
-33.124130
 21
636.446838
  0
LINE
  8
LC-003-002-----0
 62
     1
  6
CONTINUOUS
 10
-34.224129
 20
657.526917
 11
-33.124130
 21
657.526917
  0
LINE
  8
LC-003-002-----0
 62
     1
  6
CONTINUOUS
 10
-18.024130
 20
636.446838
 11
-18.024130
 21
657.526917
  0
LINE
  8
LC-003-002-----0
 62
     1
  6
CONTINUOUS
 10
-18.024130
 20
657.526917
 11
-19.124128
 21
657.526917
  0
LINE
  8
LC-003-002-----0
 62
     1
  6
CONTINUOUS
 10
-18.024130
 20
636.446838
 11
-19.124128
 21
636.446838
  0
LINE
  8
LC-003-002-----0
 62
     1
  6
CONTINUOUS
 10
-103.553192
 20
569.372437
 11
-103.553192
 21
543.372437
  0
LINE
  8
LC-003-002-----0
 62
     1
  6
CONTINUOUS
 10
-102.553192
 20
542.372437
 11
-91.553192
 21
542.372437
  0
LINE
  8
LC-003-002-----0
 62
     1
  6
CONTINUOUS
 10
-71.553192
 20
569.372437
 11
-71.553192
 21
543.372437
  0
LINE
  8
LC-003-002-----0
 62
     1
  6
CONTINUOUS
 10
-102.553192
 20
570.372437
 11
-91.553192
 21
570.372437
  0
LINE
  8
LC-004-006-----0
 62
     2
  6
DASHDOT
 10
-68.894867
 20
556.372437
 11
-105.965118
 21
556.372437
  0
LINE
  8
LC-004-006-----0
 62
     2
  6
DASHDOT
 10
-102.652763
 20
566.372437
 11
-97.028473
 21
566.372437
  0
LINE
  8
LC-004-006-----0
 62
     2
  6
DASHDOT
 10
-100.053192
 20
569.274353
 11
-100.053192
 21
563.072815
  0
CIRCLE
  8
LC-003-002-----0
 62
     1
  6
CONTINUOUS
 10
-100.053192
 20
566.372437
 40
1.700000
  0
LINE
  8
LC-004-006-----0
 62
     2
  6
DASHDOT
 10
-102.652763
 20
546.372437
 11
-97.028473
 21
546.372437
  0
LINE
  8
LC-004-006-----0
 62
     2
  6
DASHDOT
 10
-100.053192
 20
543.470520
 11
-100.053192
 21
549.672119
  0
CIRCLE
  8
LC-003-002-----0
 62
     1
  6
CONTINUOUS
 10
-100.053192
 20
546.372437
 40
1.700000
  0
LINE
  8
LC-004-006-----0
 62
     2
  6
DASHDOT
 10
-72.453613
 20
566.372437
 11
-78.077911
 21
566.372437
  0
LINE
  8
LC-004-006-----0
 62
     2
  6
DASHDOT
 10
-75.053192
 20
569.274353
 11
-75.053192
 21
563.072815
  0
CIRCLE
  8
LC-003-002-----0
 62
     1
  6
CONTINUOUS
 10
-75.053192
 20
566.372437
 40
1.700000
  0
LINE
  8
LC-004-006-----0
 62
     2
  6
DASHDOT
 10
-72.453613
 20
546.372437
 11
-78.077911
 21
546.372437
  0
LINE
  8
LC-004-006-----0
 62
     2
  6
DASHDOT
 10
-75.053192
 20
543.470520
 11
-75.053192
 21
549.672119
  0
CIRCLE
  8
LC-003-002-----0
 62
     1
  6
CONTINUOUS
 10
-75.053192
 20
546.372437
 40
1.700000
  0
ARC
  8
LC-003-002-----0
 62
     1
  6
CONTINUOUS
 10
-102.553192
 20
569.372437
 40
1.000000
 50
90.000003
 51
180.000009
  0
ARC
  8
LC-003-002-----0
 62
     1
  6
CONTINUOUS
 10
-102.553192
 20
543.372437
 40
1.000000
 50
180.000009
 51
269.999997
  0
ARC
  8
LC-003-002-----0
 62
     1
  6
CONTINUOUS
 10
-72.553192
 20
543.372437
 40
1.000000
 50
269.999997
 51
0.000000
  0
ARC
  8
LC-003-002-----0
 62
     1
  6
CONTINUOUS
 10
-72.553192
 20
569.372437
 40
1.000000
 50
0.000000
 51
90.000003
  0
LINE
  8
LC-004-006-----0
 62
     2
  6
DASHDOT
 10
-87.553192
 20
578.771545
 11
-87.553192
 21
533.035339
  0
LINE
  8
LC-003-002-----0
 62
     1
  6
CONTINUOUS
 10
-76.053192
 20
563.372437
 11
-76.053192
 21
561.372437
  0
LINE
  8
LC-003-002-----0
 62
     1
  6
CONTINUOUS
 10
-99.053192
 20
563.372437
 11
-99.053192
 21
561.372437
  0
LINE
  8
LC-003-002-----0
 62
     1
  6
CONTINUOUS
 10
-76.053192
 20
563.372437
 11
-99.053192
 21
563.372437
  0
LINE
  8
LC-003-002-----0
 62
     1
  6
CONTINUOUS
 10
-76.053192
 20
549.372437
 11
-99.053192
 21
549.372437
  0
LINE
  8
LC-003-002-----0
 62
     1
  6
CONTINUOUS
 10
-71.553192
 20
560.372437
 11
-103.553192
 21
560.372437
  0
LINE
  8
LC-003-002-----0
 62
     1
  6
CONTINUOUS
 10
-71.553192
 20
552.372437
 11
-103.553192
 21
552.372437
  0
LINE
  8
LC-003-002-----0
 62
     1
  6
CONTINUOUS
 10
-101.799614
 20
559.372437
 11
-101.799614
 21
553.372437
  0
LINE
  8
LC-003-002-----0
 62
     1
  6
CONTINUOUS
 10
-99.053192
 20
551.372437
 11
-99.053192
 21
549.372437
  0
ARC
  8
LC-003-002-----0
 62
     1
  6
CONTINUOUS
 10
-100.799614
 20
559.372437
 40
1.000000
 50
90.000003
 51
180.000009
  0
LINE
  8
LC-003-002-----0
 62
     1
  6
CONTINUOUS
 10
-76.053192
 20
551.372437
 11
-76.053192
 21
549.372437
  0
LINE
  8
LC-003-002-----0
 62
     1
  6
CONTINUOUS
 10
-96.786827
 20
564.472473
 11
-96.786827
 21
563.372437
  0
LINE
  8
LC-003-002-----0
 62
     1
  6
CONTINUOUS
 10
-78.319557
 20
564.472473
 11
-78.319557
 21
563.372437
  0
LINE
  8
LC-003-002-----0
 62
     1
  6
CONTINUOUS
 10
-96.786827
 20
549.372437
 11
-96.786827
 21
548.272461
  0
LINE
  8
LC-003-002-----0
 62
     1
  6
CONTINUOUS
 10
-78.319557
 20
549.372437
 11
-78.319557
 21
548.272461
  0
LINE
  8
LC-003-002-----0
 62
     1
  6
CONTINUOUS
 10
-80.053192
 20
568.872437
 11
-95.053192
 21
568.872437
  0
ARC
  8
LC-003-002-----0
 62
     1
  6
CONTINUOUS
 10
-95.053192
 20
568.372437
 40
0.500000
 50
90.000003
 51
180.000009
  0
ARC
  8
LC-003-002-----0
 62
     1
  6
CONTINUOUS
 10
-80.053192
 20
568.372437
 40
0.500000
 50
0.000000
 51
90.000003
  0
LINE
  8
LC-003-002-----0
 62
     1
  6
CONTINUOUS
 10
-80.053192
 20
543.872437
 11
-95.053192
 21
543.872437
  0
ARC
  8
LC-003-002-----0
 62
     1
  6
CONTINUOUS
 10
-95.053192
 20
544.372437
 40
0.500000
 50
180.000009
 51
269.999997
  0
ARC
  8
LC-003-002-----0
 62
     1
  6
CONTINUOUS
 10
-80.053192
 20
544.372437
 40
0.500000
 50
269.999997
 51
0.000000
  0
LINE
  8
LC-003-002-----0
 62
     1
  6
CONTINUOUS
 10
-95.553192
 20
568.372437
 11
-95.553192
 21
564.472473
  0
LINE
  8
LC-006-012-----0
 62
     2
  6
DASHED
 10
-95.553192
 20
564.472473
 11
-95.553192
 21
548.272461
  0
LINE
  8
LC-003-002-----0
 62
     1
  6
CONTINUOUS
 10
-79.553192
 20
568.372437
 11
-79.553192
 21
564.472473
  0
LINE
  8
LC-006-012-----0
 62
     2
  6
DASHED
 10
-79.553192
 20
564.472473
 11
-79.553192
 21
548.272461
  0
LINE
  8
LC-003-002-----0
 62
     1
  6
CONTINUOUS
 10
-79.553192
 20
548.272461
 11
-79.553192
 21
544.372437
  0
LINE
  8
LC-003-002-----0
 62
     1
  6
CONTINUOUS
 10
-95.553192
 20
548.272461
 11
-95.553192
 21
544.372437
  0
LINE
  8
LC-003-002-----0
 62
     1
  6
CONTINUOUS
 10
-83.553192
 20
577.545532
 11
-83.553192
 21
568.872437
  0
LINE
  8
LC-006-012-----0
 62
     2
  6
DASHED
 10
-91.553192
 20
570.372437
 11
-83.553192
 21
570.372437
  0
LINE
  8
LC-003-002-----0
 62
     1
  6
CONTINUOUS
 10
-83.553192
 20
570.372437
 11
-72.553192
 21
570.372437
  0
LINE
  8
LC-006-012-----0
 62
     2
  6
DASHED
 10
-91.553192
 20
542.372437
 11
-83.553192
 21
542.372437
  0
LINE
  8
LC-003-002-----0
 62
     1
  6
CONTINUOUS
 10
-83.553192
 20
542.372437
 11
-72.553192
 21
542.372437
  0
LINE
  8
LC-003-002-----0
 62
     1
  6
CONTINUOUS
 10
-91.553192
 20
577.423889
 11
-91.553192
 21
568.872437
  0
LINE
  8
LC-001-150-----0
 62
     2
  6
CONTINUOUS
 10
-91.553192
 20
577.423889
 11
-88.516380
 21
577.146362
  0
LINE
  8
LC-001-150-----0
 62
     2
  6
CONTINUOUS
 10
-88.516380
 20
577.146362
 11
-83.553192
 21
577.545532
  0
LINE
  8
LC-001-150-----0
 62
     2
  6
CONTINUOUS
 10
-91.553192
 20
535.421509
 11
-88.747330
 21
534.892639
  0
LINE
  8
LC-001-150-----0
 62
     2
  6
CONTINUOUS
 10
-88.747330
 20
534.892639
 11
-83.553192
 21
535.513489
  0
LINE
  8
LC-003-002-----0
 62
     1
  6
CONTINUOUS
 10
-91.553192
 20
543.872437
 11
-91.553192
 21
535.421509
  0
LINE
  8
LC-003-002-----0
 62
     1
  6
CONTINUOUS
 10
-83.553192
 20
543.872437
 11
-83.553192
 21
535.513489
  0
LINE
  8
LC-006-012-----0
 62
     2
  6
DASHED
 10
-91.553192
 20
568.872437
 11
-91.553192
 21
543.872437
  0
LINE
  8
LC-006-012-----0
 62
     2
  6
DASHED
 10
-83.553192
 20
568.872437
 11
-83.553192
 21
543.872437
  0
LINE
  8
LC-003-002-----0
 62
     1
  6
CONTINUOUS
 10
-88.103188
 20
564.472473
 11
-88.103188
 21
563.372437
  0
LINE
  8
LC-003-002-----0
 62
     1
  6
CONTINUOUS
 10
-88.103188
 20
549.372437
 11
-88.103188
 21
548.272461
  0
LINE
  8
LC-003-002-----0
 62
     1
  6
CONTINUOUS
 10
-87.003189
 20
564.472473
 11
-87.003189
 21
563.372437
  0
LINE
  8
LC-003-002-----0
 62
     1
  6
CONTINUOUS
 10
-87.003189
 20
549.372437
 11
-87.003189
 21
548.272461
  0
LINE
  8
LC-003-002-----0
 62
     1
  6
CONTINUOUS
 10
-78.319557
 20
564.472473
 11
-96.786827
 21
564.472473
  0
LINE
  8
LC-003-002-----0
 62
     1
  6
CONTINUOUS
 10
-78.319557
 20
548.272461
 11
-96.786827
 21
548.272461
  0
LINE
  8
LC-003-002-----0
 62
     1
  6
CONTINUOUS
 10
-19.124128
 20
651.246826
 11
-33.124130
 21
651.246826
  0
ARC
  8
LC-003-002-----0
 62
     1
  6
CONTINUOUS
 10
-29.624128
 20
658.746826
 40
0.500000
 50
90.000003
 51
180.000009
  0
ARC
  8
LC-003-002-----0
 62
     1
  6
CONTINUOUS
 10
-22.624128
 20
658.746826
 40
0.500000
 50
0.000000
 51
90.000003
  0
ARC
  8
LC-003-002-----0
 62
     1
  6
CONTINUOUS
 10
-29.624128
 20
655.746826
 40
0.500000
 50
90.000003
 51
180.000009
  0
ARC
  8
LC-003-002-----0
 62
     1
  6
CONTINUOUS
 10
-22.624128
 20
655.746826
 40
0.500000
 50
0.000000
 51
90.000003
  0
ARC
  8
LC-003-002-----0
 62
     1
  6
CONTINUOUS
 10
-100.799614
 20
553.372437
 40
1.000000
 50
180.000009
 51
269.999997
  0
LINE
  8
LC-003-002-----0
 62
     1
  6
CONTINUOUS
 10
-34.224129
 20
653.363770
 11
-33.124130
 21
653.363770
  0
LINE
  8
LC-003-002-----0
 62
     1
  6
CONTINUOUS
 10
-19.124128
 20
653.363770
 11
-18.024130
 21
653.363770
  0
ARC
  8
LC-003-002-----0
 62
     1
  6
CONTINUOUS
 10
-75.053192
 20
561.372437
 40
1.000000
 50
180.000009
 51
269.999997
  0
ARC
  8
LC-003-002-----0
 62
     1
  6
CONTINUOUS
 10
-75.053192
 20
551.372437
 40
1.000000
 50
90.000003
 51
180.000009
  0
ARC
  8
LC-003-002-----0
 62
     1
  6
CONTINUOUS
 10
-100.053192
 20
561.372437
 40
1.000000
 50
269.999997
 51
0.000000
  0
ARC
  8
LC-003-002-----0
 62
     1
  6
CONTINUOUS
 10
-100.053192
 20
551.372437
 40
1.000000
 50
0.000000
 51
90.000003
  0
LINE
  8
LC-004-006-----0
 62
     2
  6
DASHDOT
 10
-98.553192
 20
644.197998
 11
-98.553192
 21
658.941406
  0
LINE
  8
LC-003-002-----0
 62
     1
  6
CONTINUOUS
 10
-95.606766
 20
650.246826
 11
-102.244682
 21
650.246826
  0
LINE
  8
LC-003-002-----0
 62
     1
  6
CONTINUOUS
 10
-94.953194
 20
651.246826
 11
-102.157188
 21
651.246826
  0
LINE
  8
LC-003-002-----0
 62
     1
  6
CONTINUOUS
 10
-96.213448
 20
559.372437
 11
-96.213448
 21
557.817505
  0
ARC
  8
LC-003-002-----0
 62
     1
  6
CONTINUOUS
 10
-95.213448
 20
559.372437
 40
1.000000
 50
90.000003
 51
180.000009
  0
ARC
  8
LC-003-002-----0
 62
     1
  6
CONTINUOUS
 10
-95.213448
 20
553.372437
 40
1.000000
 50
180.000009
 51
269.999997
  0
LINE
  8
LC-003-002-----0
 62
     1
  6
CONTINUOUS
 10
-102.157188
 20
651.246826
 11
-101.799614
 21
655.333984
  0
LINE
  8
LC-006-012-----0
 62
     2
  6
DASHED
 10
-94.953194
 20
651.246826
 11
-93.798187
 21
651.246826
  0
LINE
  8
LC-006-012-----0
 62
     2
  6
DASHED
 10
-95.606766
 20
650.246826
 11
-94.481392
 21
650.246826
  0
LINE
  8
LC-001-150-----0
 62
     2
  6
CONTINUOUS
 10
-97.053192
 20
650.246826
 11
-97.053192
 21
651.246826
  0
LINE
  8
LC-003-002-----0
 62
     1
  6
CONTINUOUS
 10
-97.553192
 20
650.246826
 11
-97.553192
 21
651.246826
  0
LINE
  8
LC-001-150-----0
 62
     2
  6
CONTINUOUS
 10
-100.053192
 20
650.246826
 11
-100.053192
 21
651.246826
  0
LINE
  8
LC-003-002-----0
 62
     1
  6
CONTINUOUS
 10
-99.553192
 20
650.246826
 11
-99.553192
 21
651.246826
  0
LINE
  8
LC-003-002-----0
 62
     1
  6
CONTINUOUS
 10
-29.624128
 20
656.246826
 11
-22.624128
 21
656.246826
  0
LINE
  8
LC-003-002-----0
 62
     1
  6
CONTINUOUS
 10
-19.124128
 20
650.246826
 11
-33.124130
 21
650.246826
  0
LINE
  8
LC-003-002-----0
 62
     1
  6
CONTINUOUS
 10
-30.124128
 20
651.246826
 11
-30.124128
 21
658.746826
  0
LINE
  8
LC-003-002-----0
 62
     1
  6
CONTINUOUS
 10
-29.299553
 20
658.046814
 11
-29.299553
 21
656.646790
  0
ARC
  8
LC-003-002-----0
 62
     1
  6
CONTINUOUS
 10
-28.505695
 20
656.571289
 40
1.675521
 50
61.718955
 51
118.281050
  0
LINE
  8
LC-003-002-----0
 62
     1
  6
CONTINUOUS
 10
-27.711840
 20
658.046814
 11
-27.711840
 21
656.646790
  0
ARC
  8
LC-003-002-----0
 62
     1
  6
CONTINUOUS
 10
-26.124126
 20
651.844727
 40
6.402083
 50
75.640841
 51
104.359164
  0
LINE
  8
LC-003-002-----0
 62
     1
  6
CONTINUOUS
 10
-24.536413
 20
658.046814
 11
-24.536413
 21
656.646790
  0
LINE
  8
LC-003-002-----0
 62
     1
  6
CONTINUOUS
 10
-22.948700
 20
658.046814
 11
-22.948700
 21
656.646790
  0
ARC
  8
LC-003-002-----0
 62
     1
  6
CONTINUOUS
 10
-23.742558
 20
656.571289
 40
1.675521
 50
61.718955
 51
118.281050
  0
LINE
  8
LC-003-002-----0
 62
     1
  6
CONTINUOUS
 10
-23.742558
 20
658.246826
 11
-28.505695
 21
658.246826
  0
LINE
  8
LC-003-002-----0
 62
     1
  6
CONTINUOUS
 10
-22.948700
 20
656.646790
 11
-29.299553
 21
656.646790
  0
LINE
  8
LC-003-002-----0
 62
     1
  6
CONTINUOUS
 10
-23.310152
 20
656.646790
 11
-23.310152
 21
656.246826
  0
LINE
  8
LC-003-002-----0
 62
     1
  6
CONTINUOUS
 10
-28.938101
 20
656.646790
 11
-28.938101
 21
656.246826
  0
LINE
  8
LC-003-002-----0
 62
     1
  6
CONTINUOUS
 10
-23.310152
 20
656.246826
 11
-28.938101
 21
656.246826
  0
LINE
  8
LC-003-002-----0
 62
     1
  6
CONTINUOUS
 10
-22.124128
 20
651.246826
 11
-22.124128
 21
658.746826
  0
LINE
  8
LC-001-150-----0
 62
     2
  6
CONTINUOUS
 10
-24.624128
 20
650.246826
 11
-24.624128
 21
651.246826
  0
LINE
  8
LC-003-002-----0
 62
     1
  6
CONTINUOUS
 10
-25.124128
 20
650.246826
 11
-25.124128
 21
651.246826
  0
LINE
  8
LC-001-150-----0
 62
     2
  6
CONTINUOUS
 10
-27.624128
 20
650.246826
 11
-27.624128
 21
651.246826
  0
LINE
  8
LC-003-002-----0
 62
     1
  6
CONTINUOUS
 10
-27.124128
 20
650.246826
 11
-27.124128
 21
651.246826
  0
LINE
  8
LC-004-006-----0
 62
     2
  6
DASHDOT
 10
-98.553192
 20
560.114197
 11
-98.553192
 21
552.778320
  0
LINE
  8
LC-003-002-----0
 62
     1
  6
CONTINUOUS
 10
-96.213448
 20
554.927429
 11
-96.213448
 21
553.372437
  0
LINE
  8
LC-003-002-----0
 62
     1
  6
CONTINUOUS
 10
-101.728615
 20
658.046814
 11
-101.728615
 21
656.646790
  0
ARC
  8
LC-003-002-----0
 62
     1
  6
CONTINUOUS
 10
-100.934761
 20
656.571289
 40
1.675521
 50
61.718955
 51
118.281050
  0
LINE
  8
LC-003-002-----0
 62
     1
  6
CONTINUOUS
 10
-100.140900
 20
658.046814
 11
-100.140900
 21
656.646790
  0
ARC
  8
LC-003-002-----0
 62
     1
  6
CONTINUOUS
 10
-98.553192
 20
651.844727
 40
6.402083
 50
75.640841
 51
104.359164
  0
LINE
  8
LC-003-002-----0
 62
     1
  6
CONTINUOUS
 10
-96.965477
 20
658.046814
 11
-96.965477
 21
656.646790
  0
LINE
  8
LC-003-002-----0
 62
     1
  6
CONTINUOUS
 10
-95.377762
 20
658.046814
 11
-95.377762
 21
656.646790
  0
ARC
  8
LC-003-002-----0
 62
     1
  6
CONTINUOUS
 10
-96.171616
 20
656.571289
 40
1.675521
 50
61.718955
 51
118.281050
  0
LINE
  8
LC-003-002-----0
 62
     1
  6
CONTINUOUS
 10
-96.171616
 20
658.246826
 11
-100.934761
 21
658.246826
  0
LINE
  8
LC-003-002-----0
 62
     1
  6
CONTINUOUS
 10
-95.377762
 20
656.646790
 11
-101.728615
 21
656.646790
  0
LINE
  8
LC-003-002-----0
 62
     1
  6
CONTINUOUS
 10
-95.739212
 20
656.646790
 11
-95.739212
 21
656.366394
  0
LINE
  8
LC-003-002-----0
 62
     1
  6
CONTINUOUS
 10
-101.367165
 20
656.646790
 11
-101.367165
 21
656.246826
  0
LINE
  8
LC-003-002-----0
 62
     1
  6
CONTINUOUS
 10
-96.213448
 20
656.246826
 11
-101.367165
 21
656.246826
  0
LINE
  8
LC-003-002-----0
 62
     1
  6
CONTINUOUS
 10
-96.965477
 20
559.122437
 11
-95.377762
 21
556.372437
  0
LINE
  8
LC-003-002-----0
 62
     1
  6
CONTINUOUS
 10
-101.728615
 20
556.372437
 11
-100.140907
 21
553.622437
  0
LINE
  8
LC-003-002-----0
 62
     1
  6
CONTINUOUS
 10
-100.140907
 20
559.122437
 11
-96.965477
 21
559.122437
  0
LINE
  8
LC-003-002-----0
 62
     1
  6
CONTINUOUS
 10
-100.140907
 20
553.622437
 11
-96.965477
 21
553.622437
  0
LINE
  8
LC-003-002-----0
 62
     1
  6
CONTINUOUS
 10
-101.728615
 20
556.372437
 11
-100.140907
 21
559.122437
  0
LINE
  8
LC-003-002-----0
 62
     1
  6
CONTINUOUS
 10
-96.965477
 20
553.622437
 11
-95.377762
 21
556.372437
  0
CIRCLE
  8
LC-003-002-----0
 62
     1
  6
CONTINUOUS
 10
-98.553192
 20
556.372437
 40
2.750000
  0
ENDSEC
  0
EOF
