  0
SECTION
  2
HEADER
  9
$LIMMIN
 10
-123.311638
 20
328.466858
  9
$LIMMAX
 10
17.705557
 20
468.735565
  9
$EXTMIN
 10
-123.311638
 20
328.466858
  9
$EXTMAX
 10
17.705557
 20
468.735565
  0
ENDSEC
  0
SECTION
  2
TABLES
  0
TABLE
  2
LTYPE
 70
     3
  0
LTYPE
  2
CONTINUOUS
 70
    64
  3
Ausgezogene Linie
 72
    65
 73
     0
 40
0.0
  0
LTYPE
  2
DASHED
 70
    64
  3
__ __ __ __ __ __ __ __ __ __ __ __ __ __ __
 72
    65
 73
     2
 40
0.75
 49
0.5
 49
-0.25
  0
LTYPE
  2
DASHDOT
 70
    64
  3
__ . __ . __ . __ . __ . __ . __ . __ . __ . __
 72
    65
 73
     4
 40
1.0
 49
0.5
 49
-0.25
 49
0.0
 49
-0.25
  0
ENDTAB
  0
TABLE
  2
LAYER
 70
     4
  0
LAYER
  2
LC-003-002-----0
 70
    64
 62
     7
  6
CONTINUOUS
  0
LAYER
  2
LC-004-006-----0
 70
    64
 62
     7
  6
CONTINUOUS
  0
LAYER
  2
LC-006-012-----0
 70
    64
 62
     7
  6
CONTINUOUS
  0
LAYER
  2
LC-001-150-----0
 70
    64
 62
     7
  6
CONTINUOUS
  0
ENDTAB
  0
TABLE
  2
STYLE
 70
     1
  0
STYLE
  2
TXT8
 70
    64
 40
0.0
 41
1.0
 50
0.0
 71
     0
 42
3.500000
  3
TXT8
  4

  0
ENDTAB
  0
ENDSEC
  0
SECTION
  2
BLOCKS
  0
ENDSEC
  0
SECTION
  2
ENTITIES
  0
ARC
  8
LC-003-002-----0
 62
     1
  6
CONTINUOUS
 10
-118.766960
 20
372.398834
 40
1.000000
 50
90.000003
 51
180.000009
  0
LINE
  8
LC-003-002-----0
 62
     1
  6
CONTINUOUS
 10
-119.766960
 20
372.398834
 11
-119.766960
 21
342.398834
  0
LINE
  8
LC-003-002-----0
 62
     1
  6
CONTINUOUS
 10
-19.246975
 20
464.377014
 11
-14.746975
 21
464.377014
  0
LINE
  8
LC-003-002-----0
 62
     1
  6
CONTINUOUS
 10
-0.246975
 20
438.200378
 11
-0.246975
 21
463.377014
  0
LINE
  8
LC-003-002-----0
 62
     1
  6
CONTINUOUS
 10
-20.246975
 20
438.200378
 11
-20.246975
 21
463.377014
  0
LINE
  8
LC-003-002-----0
 62
     1
  6
CONTINUOUS
 10
-77.766960
 20
431.700378
 11
-77.766960
 21
436.200378
  0
LINE
  8
LC-003-002-----0
 62
     1
  6
CONTINUOUS
 10
-119.766960
 20
431.700378
 11
-77.766960
 21
431.700378
  0
LINE
  8
LC-003-002-----0
 62
     1
  6
CONTINUOUS
 10
-118.766960
 20
437.200378
 11
-109.891258
 21
437.200378
  0
LINE
  8
LC-003-002-----0
 62
     1
  6
CONTINUOUS
 10
-119.766960
 20
431.700378
 11
-119.766960
 21
436.200378
  0
LINE
  8
LC-004-006-----0
 62
     2
  6
DASHDOT
 10
-98.766960
 20
430.017639
 11
-98.766960
 21
468.438019
  0
LINE
  8
LC-004-006-----0
 62
     2
  6
DASHDOT
 10
-114.766960
 20
449.700378
 11
-82.766960
 21
449.700378
  0
CIRCLE
  8
LC-003-002-----0
 62
     1
  6
CONTINUOUS
 10
-98.766960
 20
449.700378
 40
6.000000
  0
CIRCLE
  8
LC-003-002-----0
 62
     1
  6
CONTINUOUS
 10
-98.766960
 20
449.700378
 40
11.000000
  0
CIRCLE
  8
LC-003-002-----0
 62
     1
  6
CONTINUOUS
 10
-98.766960
 20
449.700378
 40
10.000000
  0
ARC
  8
LC-003-002-----0
 62
     1
  6
CONTINUOUS
 10
-118.766960
 20
436.200378
 40
1.000000
 50
90.000003
 51
180.000009
  0
LINE
  8
LC-003-002-----0
 62
     1
  6
CONTINUOUS
 10
-26.246975
 20
431.700378
 11
5.753025
 21
431.700378
  0
LINE
  8
LC-003-002-----0
 62
     1
  6
CONTINUOUS
 10
-77.798576
 20
436.449829
 11
-82.304413
 21
453.941193
  0
LINE
  8
LC-003-002-----0
 62
     1
  6
CONTINUOUS
 10
5.753025
 20
431.700378
 11
5.753025
 21
436.200378
  0
LINE
  8
LC-003-002-----0
 62
     1
  6
CONTINUOUS
 10
-26.246975
 20
431.700378
 11
-26.246975
 21
436.200378
  0
LINE
  8
LC-003-002-----0
 62
     1
  6
CONTINUOUS
 10
-119.763153
 20
436.287537
 11
-118.064751
 21
455.700378
  0
LINE
  8
LC-003-002-----0
 62
     1
  6
CONTINUOUS
 10
-111.216858
 20
461.700378
 11
-116.623489
 21
461.700378
  0
ARC
  8
LC-003-002-----0
 62
     1
  6
CONTINUOUS
 10
-98.766960
 20
449.700378
 40
17.000000
 50
15.160792
 51
133.761742
  0
ARC
  8
LC-003-002-----0
 62
     1
  6
CONTINUOUS
 10
-78.766960
 20
436.200378
 40
1.000000
 50
0.000000
 51
90.000003
  0
ARC
  8
LC-003-002-----0
 62
     1
  6
CONTINUOUS
 10
-116.623489
 20
460.700378
 40
1.000000
 50
90.000003
 51
175.000006
  0
ARC
  8
LC-003-002-----0
 62
     1
  6
CONTINUOUS
 10
-111.216858
 20
462.700378
 40
1.000000
 50
269.999997
 51
313.761744
  0
LINE
  8
LC-003-002-----0
 62
     1
  6
CONTINUOUS
 10
-25.246975
 20
437.200378
 11
4.753025
 21
437.200378
  0
ARC
  8
LC-003-002-----0
 62
     1
  6
CONTINUOUS
 10
-98.766960
 20
449.700378
 40
15.000000
 50
156.421823
 51
152.181860
  0
LINE
  8
LC-003-002-----0
 62
     1
  6
CONTINUOUS
 10
-87.642662
 20
437.200378
 11
-78.766960
 21
437.200378
  0
ARC
  8
LC-003-002-----0
 62
     1
  6
CONTINUOUS
 10
-109.891258
 20
438.200378
 40
1.000000
 50
269.999997
 51
45.951375
  0
ARC
  8
LC-003-002-----0
 62
     1
  6
CONTINUOUS
 10
-87.642662
 20
438.200378
 40
1.000000
 50
134.048623
 51
269.999997
  0
LINE
  8
LC-004-006-----0
 62
     2
  6
DASHDOT
 10
-82.766960
 20
430.017639
 11
-82.766960
 21
438.997711
  0
LINE
  8
LC-006-012-----0
 62
     2
  6
DASHED
 10
-80.516960
 20
431.700378
 11
-80.516960
 21
437.200378
  0
LINE
  8
LC-006-012-----0
 62
     2
  6
DASHED
 10
-85.016960
 20
431.700378
 11
-85.016960
 21
437.200378
  0
LINE
  8
LC-004-006-----0
 62
     2
  6
DASHDOT
 10
-114.766960
 20
430.017639
 11
-114.766960
 21
438.997711
  0
LINE
  8
LC-006-012-----0
 62
     2
  6
DASHED
 10
-117.016960
 20
431.700378
 11
-117.016960
 21
437.200378
  0
LINE
  8
LC-006-012-----0
 62
     2
  6
DASHED
 10
-112.516960
 20
431.700378
 11
-112.516960
 21
437.200378
  0
ARC
  8
LC-003-002-----0
 62
     1
  6
CONTINUOUS
 10
-25.246975
 20
436.200378
 40
1.000000
 50
90.000003
 51
180.000009
  0
ARC
  8
LC-003-002-----0
 62
     1
  6
CONTINUOUS
 10
4.753025
 20
436.200378
 40
1.000000
 50
0.000000
 51
90.000003
  0
LINE
  8
LC-004-006-----0
 62
     2
  6
DASHDOT
 10
-10.246975
 20
430.017639
 11
-10.246975
 21
468.735565
  0
LINE
  8
LC-003-002-----0
 62
     1
  6
CONTINUOUS
 10
-13.246975
 20
466.700378
 11
-7.246975
 21
466.700378
  0
LINE
  8
LC-003-002-----0
 62
     1
  6
CONTINUOUS
 10
-118.766960
 20
341.398834
 11
-78.766960
 21
341.398834
  0
LINE
  8
LC-003-002-----0
 62
     1
  6
CONTINUOUS
 10
-77.766960
 20
372.398834
 11
-77.766960
 21
342.398834
  0
ARC
  8
LC-003-002-----0
 62
     1
  6
CONTINUOUS
 10
-98.766960
 20
449.000366
 40
12.600000
 50
118.178638
 51
61.821360
  0
ARC
  8
LC-003-002-----0
 62
     1
  6
CONTINUOUS
 10
-19.246975
 20
463.377014
 40
1.000000
 50
90.000003
 51
180.000009
  0
ARC
  8
LC-003-002-----0
 62
     1
  6
CONTINUOUS
 10
-1.246975
 20
463.377014
 40
1.000000
 50
0.000000
 51
90.000003
  0
ARC
  8
LC-003-002-----0
 62
     1
  6
CONTINUOUS
 10
-21.246975
 20
438.200378
 40
1.000000
 50
269.999997
 51
0.000000
  0
ARC
  8
LC-003-002-----0
 62
     1
  6
CONTINUOUS
 10
0.753025
 20
438.200378
 40
1.000000
 50
180.000009
 51
269.999997
  0
LINE
  8
LC-003-002-----0
 62
     1
  6
CONTINUOUS
 10
-6.246975
 20
438.200378
 11
-6.246975
 21
455.700378
  0
LINE
  8
LC-003-002-----0
 62
     1
  6
CONTINUOUS
 10
-14.246975
 20
438.200378
 11
-14.246975
 21
455.700378
  0
LINE
  8
LC-003-002-----0
 62
     1
  6
CONTINUOUS
 10
-104.716965
 20
460.107025
 11
-104.035110
 21
462.359314
  0
LINE
  8
LC-003-002-----0
 62
     1
  6
CONTINUOUS
 10
-102.418900
 20
463.813599
 11
-99.466965
 21
464.377014
  0
LINE
  8
LC-003-002-----0
 62
     1
  6
CONTINUOUS
 10
-99.466965
 20
460.678070
 11
-99.466965
 21
464.377014
  0
LINE
  8
LC-003-002-----0
 62
     1
  6
CONTINUOUS
 10
-98.066963
 20
460.678070
 11
-98.066963
 21
464.377014
  0
LINE
  8
LC-003-002-----0
 62
     1
  6
CONTINUOUS
 10
-98.066963
 20
464.377014
 11
-95.115021
 21
463.813599
  0
LINE
  8
LC-003-002-----0
 62
     1
  6
CONTINUOUS
 10
-92.816963
 20
460.107025
 11
-93.498810
 21
462.359314
  0
CIRCLE
  8
LC-003-002-----0
 62
     1
  6
CONTINUOUS
 10
-96.066963
 20
462.277008
 40
1.000000
  0
ARC
  8
LC-003-002-----0
 62
     1
  6
CONTINUOUS
 10
-13.246975
 20
465.700378
 40
1.000000
 50
90.000003
 51
180.000009
  0
CIRCLE
  8
LC-003-002-----0
 62
     1
  6
CONTINUOUS
 10
-101.466965
 20
462.277008
 40
1.000000
  0
ARC
  8
LC-003-002-----0
 62
     1
  6
CONTINUOUS
 10
-102.025200
 20
461.750824
 40
2.100000
 50
100.805690
 51
163.157073
  0
ARC
  8
LC-003-002-----0
 62
     1
  6
CONTINUOUS
 10
-95.508728
 20
461.750824
 40
2.100000
 50
16.842931
 51
79.194309
  0
ARC
  8
LC-003-002-----0
 62
     1
  6
CONTINUOUS
 10
-7.246975
 20
465.700378
 40
1.000000
 50
0.000000
 51
90.000003
  0
LINE
  8
LC-003-002-----0
 62
     1
  6
CONTINUOUS
 10
-5.746975
 20
464.377014
 11
-1.246975
 21
464.377014
  0
ARC
  8
LC-003-002-----0
 62
     1
  6
CONTINUOUS
 10
-15.246975
 20
438.200378
 40
1.000000
 50
269.999997
 51
0.000000
  0
ARC
  8
LC-003-002-----0
 62
     1
  6
CONTINUOUS
 10
-5.246975
 20
438.200378
 40
1.000000
 50
180.000009
 51
269.999997
  0
ARC
  8
LC-003-002-----0
 62
     1
  6
CONTINUOUS
 10
-13.246975
 20
460.700378
 40
1.000000
 50
90.000003
 51
180.000009
  0
ARC
  8
LC-003-002-----0
 62
     1
  6
CONTINUOUS
 10
-7.246975
 20
460.700378
 40
1.000000
 50
0.000000
 51
90.000003
  0
LINE
  8
LC-003-002-----0
 62
     1
  6
CONTINUOUS
 10
-7.246975
 20
461.700378
 11
-13.246975
 21
461.700378
  0
ARC
  8
LC-003-002-----0
 62
     1
  6
CONTINUOUS
 10
-14.746975
 20
464.877014
 40
0.500000
 50
269.999997
 51
0.000000
  0
ARC
  8
LC-003-002-----0
 62
     1
  6
CONTINUOUS
 10
-5.746975
 20
464.877014
 40
0.500000
 50
180.000009
 51
269.999997
  0
LINE
  8
LC-004-006-----0
 62
     2
  6
DASHDOT
 10
-21.746975
 20
430.017639
 11
-21.746975
 21
438.997711
  0
LINE
  8
LC-004-006-----0
 62
     2
  6
DASHDOT
 10
1.253025
 20
430.017639
 11
1.253025
 21
438.997711
  0
LINE
  8
LC-006-012-----0
 62
     2
  6
DASHED
 10
3.503025
 20
431.700378
 11
3.503025
 21
437.200378
  0
LINE
  8
LC-006-012-----0
 62
     2
  6
DASHED
 10
-0.996975
 20
431.700378
 11
-0.996975
 21
437.200378
  0
LINE
  8
LC-004-006-----0
 62
     2
  6
DASHDOT
 10
-39.387932
 20
449.700378
 11
17.705557
 21
449.700378
  0
LINE
  8
LC-006-012-----0
 62
     2
  6
DASHED
 10
-23.996975
 20
431.700378
 11
-23.996975
 21
437.200378
  0
LINE
  8
LC-006-012-----0
 62
     2
  6
DASHED
 10
-19.496975
 20
431.700378
 11
-19.496975
 21
437.200378
  0
LINE
  8
LC-003-002-----0
 62
     1
  6
CONTINUOUS
 10
-36.578991
 20
455.700378
 11
-26.246975
 21
455.700378
  0
LINE
  8
LC-003-002-----0
 62
     1
  6
CONTINUOUS
 10
-25.746975
 20
460.700378
 11
-21.546974
 21
460.700378
  0
LINE
  8
LC-003-002-----0
 62
     1
  6
CONTINUOUS
 10
-25.746975
 20
438.700378
 11
-21.546974
 21
438.700378
  0
LINE
  8
LC-003-002-----0
 62
     1
  6
CONTINUOUS
 10
5.753025
 20
439.200378
 11
5.753025
 21
460.200378
  0
LINE
  8
LC-003-002-----0
 62
     1
  6
CONTINUOUS
 10
-26.246975
 20
439.200378
 11
-26.246975
 21
460.200378
  0
ARC
  8
LC-003-002-----0
 62
     1
  6
CONTINUOUS
 10
-25.746975
 20
460.200378
 40
0.500000
 50
90.000003
 51
180.000009
  0
ARC
  8
LC-003-002-----0
 62
     1
  6
CONTINUOUS
 10
-25.746975
 20
439.200378
 40
0.500000
 50
180.000009
 51
269.999997
  0
ARC
  8
LC-003-002-----0
 62
     1
  6
CONTINUOUS
 10
5.253025
 20
439.200378
 40
0.500000
 50
269.999997
 51
0.000000
  0
ARC
  8
LC-003-002-----0
 62
     1
  6
CONTINUOUS
 10
5.253025
 20
460.200378
 40
0.500000
 50
0.000000
 51
90.000003
  0
LINE
  8
LC-006-012-----0
 62
     2
  6
DASHED
 10
-21.546974
 20
460.700378
 11
1.053024
 21
460.700378
  0
LINE
  8
LC-003-002-----0
 62
     1
  6
CONTINUOUS
 10
1.053025
 20
460.700378
 11
5.253025
 21
460.700378
  0
LINE
  8
LC-006-012-----0
 62
     2
  6
DASHED
 10
-21.546974
 20
438.700378
 11
1.053024
 21
438.700378
  0
LINE
  8
LC-003-002-----0
 62
     1
  6
CONTINUOUS
 10
1.053025
 20
438.700378
 11
5.253025
 21
438.700378
  0
LINE
  8
LC-003-002-----0
 62
     1
  6
CONTINUOUS
 10
-21.546974
 20
437.200378
 11
-21.546974
 21
464.377014
  0
LINE
  8
LC-003-002-----0
 62
     1
  6
CONTINUOUS
 10
1.053025
 20
464.377014
 11
-0.246975
 21
464.377014
  0
LINE
  8
LC-003-002-----0
 62
     1
  6
CONTINUOUS
 10
-21.546974
 20
464.377014
 11
-20.246975
 21
464.377014
  0
LINE
  8
LC-003-002-----0
 62
     1
  6
CONTINUOUS
 10
1.053025
 20
437.200378
 11
1.053025
 21
464.377014
  0
LINE
  8
LC-003-002-----0
 62
     1
  6
CONTINUOUS
 10
-20.246975
 20
463.377014
 11
-20.246975
 21
464.377014
  0
LINE
  8
LC-003-002-----0
 62
     1
  6
CONTINUOUS
 10
-0.246975
 20
463.377014
 11
-0.246975
 21
464.377014
  0
LINE
  8
LC-001-150-----0
 62
     2
  6
CONTINUOUS
 10
15.222202
 20
443.700378
 11
15.684062
 21
448.923584
  0
LINE
  8
LC-001-150-----0
 62
     2
  6
CONTINUOUS
 10
15.684062
 20
448.923584
 11
14.964985
 21
455.700378
  0
LINE
  8
LC-001-150-----0
 62
     2
  6
CONTINUOUS
 10
-36.037289
 20
443.700378
 11
-36.447578
 21
449.062164
  0
LINE
  8
LC-001-150-----0
 62
     2
  6
CONTINUOUS
 10
-36.447578
 20
449.062164
 11
-36.578991
 21
455.700378
  0
LINE
  8
LC-006-012-----0
 62
     2
  6
DASHED
 10
-26.246975
 20
455.700378
 11
5.753025
 21
455.700378
  0
LINE
  8
LC-003-002-----0
 62
     1
  6
CONTINUOUS
 10
-36.037289
 20
443.700378
 11
-26.246975
 21
443.700378
  0
LINE
  8
LC-006-012-----0
 62
     2
  6
DASHED
 10
-26.246975
 20
443.700378
 11
5.753025
 21
443.700378
  0
LINE
  8
LC-003-002-----0
 62
     1
  6
CONTINUOUS
 10
5.753025
 20
443.700378
 11
15.222202
 21
443.700378
  0
LINE
  8
LC-003-002-----0
 62
     1
  6
CONTINUOUS
 10
5.753025
 20
455.700378
 11
14.964985
 21
455.700378
  0
LINE
  8
LC-003-002-----0
 62
     1
  6
CONTINUOUS
 10
-118.766960
 20
373.398834
 11
-78.766960
 21
373.398834
  0
ARC
  8
LC-003-002-----0
 62
     1
  6
CONTINUOUS
 10
-118.766960
 20
342.398834
 40
1.000000
 50
180.000009
 51
269.999997
  0
ARC
  8
LC-003-002-----0
 62
     1
  6
CONTINUOUS
 10
-78.766960
 20
342.398834
 40
1.000000
 50
269.999997
 51
0.000000
  0
ARC
  8
LC-003-002-----0
 62
     1
  6
CONTINUOUS
 10
-78.766960
 20
372.398834
 40
1.000000
 50
0.000000
 51
90.000003
  0
LINE
  8
LC-004-006-----0
 62
     2
  6
DASHDOT
 10
-123.311638
 20
357.398834
 11
-74.057610
 21
357.398834
  0
LINE
  8
LC-003-002-----0
 62
     1
  6
CONTINUOUS
 10
-119.766960
 20
361.398834
 11
-77.766960
 21
361.398834
  0
LINE
  8
LC-003-002-----0
 62
     1
  6
CONTINUOUS
 10
-119.766960
 20
353.398834
 11
-77.766960
 21
353.398834
  0
LINE
  8
LC-003-002-----0
 62
     1
  6
CONTINUOUS
 10
-117.619682
 20
360.398834
 11
-117.619682
 21
357.991119
  0
ARC
  8
LC-003-002-----0
 62
     1
  6
CONTINUOUS
 10
-116.619682
 20
354.398834
 40
1.000000
 50
180.000009
 51
269.999997
  0
ARC
  8
LC-003-002-----0
 62
     1
  6
CONTINUOUS
 10
-116.619682
 20
360.398834
 40
1.000000
 50
90.000003
 51
180.000009
  0
LINE
  8
LC-003-002-----0
 62
     1
  6
CONTINUOUS
 10
-113.766960
 20
366.398834
 11
-113.766960
 21
362.398834
  0
LINE
  8
LC-003-002-----0
 62
     1
  6
CONTINUOUS
 10
-112.766960
 20
367.398834
 11
-84.766960
 21
367.398834
  0
LINE
  8
LC-003-002-----0
 62
     1
  6
CONTINUOUS
 10
-83.766960
 20
366.398834
 11
-83.766960
 21
362.398834
  0
LINE
  8
LC-003-002-----0
 62
     1
  6
CONTINUOUS
 10
-112.766960
 20
347.398834
 11
-84.766960
 21
347.398834
  0
ARC
  8
LC-003-002-----0
 62
     1
  6
CONTINUOUS
 10
-112.766960
 20
366.398834
 40
1.000000
 50
90.000003
 51
180.000009
  0
ARC
  8
LC-003-002-----0
 62
     1
  6
CONTINUOUS
 10
-112.766960
 20
348.398834
 40
1.000000
 50
180.000009
 51
269.999997
  0
ARC
  8
LC-003-002-----0
 62
     1
  6
CONTINUOUS
 10
-84.766960
 20
348.398834
 40
1.000000
 50
269.999997
 51
0.000000
  0
ARC
  8
LC-003-002-----0
 62
     1
  6
CONTINUOUS
 10
-84.766960
 20
366.398834
 40
1.000000
 50
0.000000
 51
90.000003
  0
LINE
  8
LC-003-002-----0
 62
     1
  6
CONTINUOUS
 10
-113.766960
 20
352.398834
 11
-113.766960
 21
348.398834
  0
LINE
  8
LC-003-002-----0
 62
     1
  6
CONTINUOUS
 10
-83.766960
 20
352.398834
 11
-83.766960
 21
348.398834
  0
LINE
  8
LC-004-006-----0
 62
     2
  6
DASHDOT
 10
-114.766960
 20
371.849457
 11
-114.766960
 21
365.536194
  0
LINE
  8
LC-004-006-----0
 62
     2
  6
DASHDOT
 10
-117.977119
 20
368.898834
 11
-111.365585
 21
368.898834
  0
CIRCLE
  8
LC-003-002-----0
 62
     1
  6
CONTINUOUS
 10
-114.766960
 20
368.898834
 40
2.250000
  0
LINE
  8
LC-004-006-----0
 62
     2
  6
DASHDOT
 10
-114.766960
 20
342.948242
 11
-114.766960
 21
349.261505
  0
LINE
  8
LC-004-006-----0
 62
     2
  6
DASHDOT
 10
-117.977119
 20
345.898834
 11
-111.365585
 21
345.898834
  0
CIRCLE
  8
LC-003-002-----0
 62
     1
  6
CONTINUOUS
 10
-114.766960
 20
345.898834
 40
2.250000
  0
LINE
  8
LC-004-006-----0
 62
     2
  6
DASHDOT
 10
-82.766960
 20
371.849457
 11
-82.766960
 21
365.536194
  0
LINE
  8
LC-004-006-----0
 62
     2
  6
DASHDOT
 10
-79.556808
 20
368.898834
 11
-86.168343
 21
368.898834
  0
CIRCLE
  8
LC-003-002-----0
 62
     1
  6
CONTINUOUS
 10
-82.766960
 20
368.898834
 40
2.250000
  0
LINE
  8
LC-004-006-----0
 62
     2
  6
DASHDOT
 10
-82.766960
 20
342.948242
 11
-82.766960
 21
349.261505
  0
LINE
  8
LC-004-006-----0
 62
     2
  6
DASHDOT
 10
-79.556808
 20
345.898834
 11
-86.168343
 21
345.898834
  0
CIRCLE
  8
LC-003-002-----0
 62
     1
  6
CONTINUOUS
 10
-82.766960
 20
345.898834
 40
2.250000
  0
LINE
  8
LC-003-002-----0
 62
     1
  6
CONTINUOUS
 10
-109.766960
 20
372.898834
 11
-109.766960
 21
368.698853
  0
LINE
  8
LC-003-002-----0
 62
     1
  6
CONTINUOUS
 10
-87.766960
 20
372.898834
 11
-87.766960
 21
368.698853
  0
LINE
  8
LC-003-002-----0
 62
     1
  6
CONTINUOUS
 10
-111.347504
 20
368.698853
 11
-86.166962
 21
368.698853
  0
LINE
  8
LC-003-002-----0
 62
     1
  6
CONTINUOUS
 10
-111.347504
 20
368.698853
 11
-111.347504
 21
367.398834
  0
LINE
  8
LC-003-002-----0
 62
     1
  6
CONTINUOUS
 10
-86.166962
 20
368.698853
 11
-86.166962
 21
367.398834
  0
LINE
  8
LC-003-002-----0
 62
     1
  6
CONTINUOUS
 10
-99.466965
 20
368.698853
 11
-99.466965
 21
367.398834
  0
LINE
  8
LC-003-002-----0
 62
     1
  6
CONTINUOUS
 10
-98.066963
 20
368.698853
 11
-98.066963
 21
367.398834
  0
LINE
  8
LC-006-012-----0
 62
     2
  6
DASHED
 10
-109.766960
 20
368.698853
 11
-109.766960
 21
346.098846
  0
LINE
  8
LC-003-002-----0
 62
     1
  6
CONTINUOUS
 10
-109.766960
 20
346.098846
 11
-109.766960
 21
341.898834
  0
LINE
  8
LC-006-012-----0
 62
     2
  6
DASHED
 10
-87.766960
 20
368.698853
 11
-87.766960
 21
346.098846
  0
LINE
  8
LC-003-002-----0
 62
     1
  6
CONTINUOUS
 10
-87.766960
 20
346.098846
 11
-87.766960
 21
341.898834
  0
LINE
  8
LC-003-002-----0
 62
     1
  6
CONTINUOUS
 10
-111.347504
 20
346.098846
 11
-86.166962
 21
346.098846
  0
LINE
  8
LC-003-002-----0
 62
     1
  6
CONTINUOUS
 10
-99.466965
 20
346.098846
 11
-99.466965
 21
347.398834
  0
LINE
  8
LC-003-002-----0
 62
     1
  6
CONTINUOUS
 10
-98.066963
 20
346.098846
 11
-98.066963
 21
347.398834
  0
LINE
  8
LC-003-002-----0
 62
     1
  6
CONTINUOUS
 10
-111.347504
 20
346.098846
 11
-111.347504
 21
347.398834
  0
LINE
  8
LC-003-002-----0
 62
     1
  6
CONTINUOUS
 10
-86.166962
 20
346.098846
 11
-86.166962
 21
347.398834
  0
ARC
  8
LC-003-002-----0
 62
     1
  6
CONTINUOUS
 10
-109.266960
 20
341.898834
 40
0.500000
 50
180.000009
 51
269.999997
  0
ARC
  8
LC-003-002-----0
 62
     1
  6
CONTINUOUS
 10
-88.266960
 20
341.898834
 40
0.500000
 50
269.999997
 51
0.000000
  0
ARC
  8
LC-003-002-----0
 62
     1
  6
CONTINUOUS
 10
-88.266960
 20
372.898834
 40
0.500000
 50
0.000000
 51
90.000003
  0
ARC
  8
LC-003-002-----0
 62
     1
  6
CONTINUOUS
 10
-109.266960
 20
372.898834
 40
0.500000
 50
90.000003
 51
180.000009
  0
LINE
  8
LC-001-150-----0
 62
     2
  6
CONTINUOUS
 10
-104.766960
 20
383.658264
 11
-100.862953
 21
383.197693
  0
LINE
  8
LC-001-150-----0
 62
     2
  6
CONTINUOUS
 10
-100.862953
 20
383.197693
 11
-92.766960
 21
384.400055
  0
LINE
  8
LC-001-150-----0
 62
     2
  6
CONTINUOUS
 10
-104.766960
 20
331.094910
 11
-99.829338
 21
330.546509
  0
LINE
  8
LC-001-150-----0
 62
     2
  6
CONTINUOUS
 10
-99.829338
 20
330.546509
 11
-92.766960
 21
331.346161
  0
LINE
  8
LC-003-002-----0
 62
     1
  6
CONTINUOUS
 10
-104.766960
 20
383.658264
 11
-104.766960
 21
373.398834
  0
LINE
  8
LC-006-012-----0
 62
     2
  6
DASHED
 10
-104.766960
 20
373.398834
 11
-104.766960
 21
341.398834
  0
LINE
  8
LC-003-002-----0
 62
     1
  6
CONTINUOUS
 10
-92.766960
 20
384.400055
 11
-92.766960
 21
373.398834
  0
LINE
  8
LC-006-012-----0
 62
     2
  6
DASHED
 10
-92.766960
 20
373.398834
 11
-92.766960
 21
341.398834
  0
LINE
  8
LC-003-002-----0
 62
     1
  6
CONTINUOUS
 10
-104.766960
 20
341.398834
 11
-104.766960
 21
331.094910
  0
LINE
  8
LC-003-002-----0
 62
     1
  6
CONTINUOUS
 10
-92.766960
 20
341.398834
 11
-92.766960
 21
331.346161
  0
LINE
  8
LC-004-006-----0
 62
     2
  6
DASHDOT
 10
-98.766960
 20
385.277344
 11
-98.766960
 21
328.466858
  0
LINE
  8
LC-003-002-----0
 62
     1
  6
CONTINUOUS
 10
-21.546974
 20
460.107025
 11
-20.246975
 21
460.107025
  0
LINE
  8
LC-003-002-----0
 62
     1
  6
CONTINUOUS
 10
-0.246975
 20
460.107025
 11
1.053025
 21
460.107025
  0
ARC
  8
LC-003-002-----0
 62
     1
  6
CONTINUOUS
 10
-114.766960
 20
362.398834
 40
1.000000
 50
269.999997
 51
0.000000
  0
ARC
  8
LC-003-002-----0
 62
     1
  6
CONTINUOUS
 10
-114.766960
 20
352.398834
 40
1.000000
 50
0.000000
 51
90.000003
  0
ARC
  8
LC-003-002-----0
 62
     1
  6
CONTINUOUS
 10
-82.766960
 20
362.398834
 40
1.000000
 50
180.000009
 51
269.999997
  0
ARC
  8
LC-003-002-----0
 62
     1
  6
CONTINUOUS
 10
-82.766960
 20
352.398834
 40
1.000000
 50
90.000003
 51
180.000009
  0
LINE
  8
LC-003-002-----0
 62
     1
  6
CONTINUOUS
 10
-111.216858
 20
360.398834
 11
-111.216858
 21
359.621918
  0
ARC
  8
LC-003-002-----0
 62
     1
  6
CONTINUOUS
 10
-110.216858
 20
360.398834
 40
1.000000
 50
90.000003
 51
180.000009
  0
ARC
  8
LC-003-002-----0
 62
     1
  6
CONTINUOUS
 10
-110.216858
 20
354.398834
 40
1.000000
 50
180.000009
 51
269.999997
  0
LINE
  8
LC-004-006-----0
 62
     2
  6
DASHDOT
 10
-113.920174
 20
465.928436
 11
-113.920174
 21
450.259308
  0
LINE
  8
LC-003-002-----0
 62
     1
  6
CONTINUOUS
 10
-116.623489
 20
461.700378
 11
-111.216858
 21
461.700378
  0
ARC
  8
LC-003-002-----0
 62
     1
  6
CONTINUOUS
 10
-111.216858
 20
462.700378
 40
1.000000
 50
269.999997
 51
313.761744
  0
LINE
  8
LC-003-002-----0
 62
     1
  6
CONTINUOUS
 10
-108.740425
 20
456.700378
 11
-117.977264
 21
456.700378
  0
LINE
  8
LC-003-002-----0
 62
     1
  6
CONTINUOUS
 10
-109.437950
 20
455.700378
 11
-118.064751
 21
455.700378
  0
LINE
  8
LC-003-002-----0
 62
     1
  6
CONTINUOUS
 10
-117.977264
 20
456.700378
 11
-117.619682
 21
460.787537
  0
LINE
  8
LC-006-012-----0
 62
     2
  6
DASHED
 10
-108.740425
 20
456.700378
 11
-107.252243
 21
456.700378
  0
LINE
  8
LC-006-012-----0
 62
     2
  6
DASHED
 10
-109.437950
 20
455.700378
 11
-107.986504
 21
455.700378
  0
LINE
  8
LC-003-002-----0
 62
     1
  6
CONTINUOUS
 10
-111.920174
 20
456.700378
 11
-111.920174
 21
455.700378
  0
LINE
  8
LC-003-002-----0
 62
     1
  6
CONTINUOUS
 10
-115.920174
 20
456.700378
 11
-115.920174
 21
455.700378
  0
LINE
  8
LC-001-150-----0
 62
     2
  6
CONTINUOUS
 10
-112.420174
 20
456.700378
 11
-112.420174
 21
455.700378
  0
LINE
  8
LC-001-150-----0
 62
     2
  6
CONTINUOUS
 10
-115.420174
 20
456.700378
 11
-115.420174
 21
455.700378
  0
LINE
  8
LC-003-002-----0
 62
     1
  6
CONTINUOUS
 10
-111.216858
 20
461.700378
 11
-117.501595
 21
461.700378
  0
LINE
  8
LC-003-002-----0
 62
     1
  6
CONTINUOUS
 10
-14.288425
 20
464.220367
 11
-14.288425
 21
462.100372
  0
ARC
  8
LC-003-002-----0
 62
     1
  6
CONTINUOUS
 10
-13.278062
 20
462.537445
 40
1.962917
 50
59.020901
 51
120.979097
  0
LINE
  8
LC-003-002-----0
 62
     1
  6
CONTINUOUS
 10
-7.215884
 20
464.500366
 11
-13.278062
 21
464.500366
  0
LINE
  8
LC-003-002-----0
 62
     1
  6
CONTINUOUS
 10
-6.205521
 20
462.100372
 11
-14.288425
 21
462.100372
  0
LINE
  8
LC-003-002-----0
 62
     1
  6
CONTINUOUS
 10
-13.828395
 20
462.100372
 11
-13.828395
 21
461.700378
  0
LINE
  8
LC-004-006-----0
 62
     2
  6
DASHDOT
 10
-113.920174
 20
363.366821
 11
-113.920174
 21
351.572479
  0
LINE
  8
LC-003-002-----0
 62
     1
  6
CONTINUOUS
 10
-6.665555
 20
461.700378
 11
-13.828395
 21
461.700378
  0
LINE
  8
LC-003-002-----0
 62
     1
  6
CONTINUOUS
 10
-12.267699
 20
464.220367
 11
-12.267699
 21
462.100372
  0
ARC
  8
LC-003-002-----0
 62
     1
  6
CONTINUOUS
 10
-10.246973
 20
457.068695
 40
7.431667
 50
74.222197
 51
105.777808
  0
LINE
  8
LC-003-002-----0
 62
     1
  6
CONTINUOUS
 10
-8.226247
 20
464.220367
 11
-8.226247
 21
462.100372
  0
ARC
  8
LC-003-002-----0
 62
     1
  6
CONTINUOUS
 10
-7.215884
 20
462.537445
 40
1.962917
 50
59.020901
 51
120.979097
  0
LINE
  8
LC-003-002-----0
 62
     1
  6
CONTINUOUS
 10
-6.205521
 20
464.220367
 11
-6.205521
 21
462.100372
  0
LINE
  8
LC-003-002-----0
 62
     1
  6
CONTINUOUS
 10
-117.619682
 20
356.806580
 11
-117.619682
 21
354.398834
  0
LINE
  8
LC-003-002-----0
 62
     1
  6
CONTINUOUS
 10
-8.246975
 20
456.700378
 11
-8.246975
 21
455.700378
  0
LINE
  8
LC-003-002-----0
 62
     1
  6
CONTINUOUS
 10
-12.246975
 20
456.700378
 11
-12.246975
 21
455.700378
  0
LINE
  8
LC-001-150-----0
 62
     2
  6
CONTINUOUS
 10
-8.746975
 20
456.700378
 11
-8.746975
 21
455.700378
  0
LINE
  8
LC-001-150-----0
 62
     2
  6
CONTINUOUS
 10
-11.746975
 20
456.700378
 11
-11.746975
 21
455.700378
  0
LINE
  8
LC-003-002-----0
 62
     1
  6
CONTINUOUS
 10
-111.216858
 20
355.081116
 11
-111.216858
 21
354.398834
  0
LINE
  8
LC-003-002-----0
 62
     1
  6
CONTINUOUS
 10
-0.246975
 20
456.700378
 11
-20.246975
 21
456.700378
  0
LINE
  8
LC-003-002-----0
 62
     1
  6
CONTINUOUS
 10
-0.246975
 20
455.700378
 11
-20.246975
 21
455.700378
  0
LINE
  8
LC-003-002-----0
 62
     1
  6
CONTINUOUS
 10
-117.961624
 20
464.220367
 11
-117.961624
 21
462.100372
  0
ARC
  8
LC-003-002-----0
 62
     1
  6
CONTINUOUS
 10
-116.951263
 20
462.537445
 40
1.962917
 50
59.020901
 51
120.979097
  0
LINE
  8
LC-003-002-----0
 62
     1
  6
CONTINUOUS
 10
-115.940903
 20
464.220367
 11
-115.940903
 21
462.100372
  0
ARC
  8
LC-003-002-----0
 62
     1
  6
CONTINUOUS
 10
-113.920174
 20
457.068695
 40
7.431667
 50
74.222197
 51
105.777808
  0
LINE
  8
LC-003-002-----0
 62
     1
  6
CONTINUOUS
 10
-111.899445
 20
464.220367
 11
-111.899445
 21
462.100372
  0
LINE
  8
LC-003-002-----0
 62
     1
  6
CONTINUOUS
 10
-109.878723
 20
464.220367
 11
-109.878723
 21
462.566162
  0
ARC
  8
LC-003-002-----0
 62
     1
  6
CONTINUOUS
 10
-110.889084
 20
462.537445
 40
1.962917
 50
59.020901
 51
120.979097
  0
LINE
  8
LC-003-002-----0
 62
     1
  6
CONTINUOUS
 10
-110.889084
 20
464.500366
 11
-116.951263
 21
464.500366
  0
LINE
  8
LC-003-002-----0
 62
     1
  6
CONTINUOUS
 10
-110.396233
 20
462.100372
 11
-117.961624
 21
462.100372
  0
LINE
  8
LC-003-002-----0
 62
     1
  6
CONTINUOUS
 10
-117.501595
 20
462.100372
 11
-117.501595
 21
461.700378
  0
LINE
  8
LC-003-002-----0
 62
     1
  6
CONTINUOUS
 10
-111.899452
 20
360.898834
 11
-109.878723
 21
357.398834
  0
LINE
  8
LC-003-002-----0
 62
     1
  6
CONTINUOUS
 10
-117.961624
 20
357.398834
 11
-115.940903
 21
353.898834
  0
LINE
  8
LC-003-002-----0
 62
     1
  6
CONTINUOUS
 10
-115.940903
 20
360.898834
 11
-111.899452
 21
360.898834
  0
LINE
  8
LC-003-002-----0
 62
     1
  6
CONTINUOUS
 10
-115.940903
 20
353.898834
 11
-111.899452
 21
353.898834
  0
LINE
  8
LC-003-002-----0
 62
     1
  6
CONTINUOUS
 10
-117.961624
 20
357.398834
 11
-115.940903
 21
360.898834
  0
LINE
  8
LC-003-002-----0
 62
     1
  6
CONTINUOUS
 10
-111.899452
 20
353.898834
 11
-109.878723
 21
357.398834
  0
CIRCLE
  8
LC-003-002-----0
 62
     1
  6
CONTINUOUS
 10
-113.920174
 20
357.398834
 40
3.500000
  0
LINE
  8
LC-003-002-----0
 62
     1
  6
CONTINUOUS
 10
-6.665555
 20
462.100372
 11
-6.665555
 21
461.700378
  0
LINE
  8
LC-003-002-----0
 62
     1
  6
CONTINUOUS
 10
-6.246975
 20
464.244568
 11
-6.246975
 21
465.700378
  0
LINE
  8
LC-003-002-----0
 62
     1
  6
CONTINUOUS
 10
-14.246975
 20
464.244568
 11
-14.246975
 21
465.700378
  0
LINE
  8
LC-003-002-----0
 62
     1
  6
CONTINUOUS
 10
-14.246975
 20
456.700378
 11
-14.246975
 21
462.100372
  0
LINE
  8
LC-003-002-----0
 62
     1
  6
CONTINUOUS
 10
-6.246975
 20
456.700378
 11
-6.246975
 21
462.100372
  0
ENDSEC
  0
EOF
