  0
SECTION
  2
HEADER
  9
$LIMMIN
 10
88.174049
 20
465.892975
  9
$LIMMAX
 10
310.574463
 20
668.716980
  9
$EXTMIN
 10
88.174049
 20
465.892975
  9
$EXTMAX
 10
310.574463
 20
668.716980
  0
ENDSEC
  0
SECTION
  2
TABLES
  0
TABLE
  2
LTYPE
 70
     3
  0
LTYPE
  2
CONTINUOUS
 70
    64
  3
Ausgezogene Linie
 72
    65
 73
     0
 40
0.0
  0
LTYPE
  2
DASHED
 70
    64
  3
__ __ __ __ __ __ __ __ __ __ __ __ __ __ __
 72
    65
 73
     2
 40
0.75
 49
0.5
 49
-0.25
  0
LTYPE
  2
DASHDOT
 70
    64
  3
__ . __ . __ . __ . __ . __ . __ . __ . __ . __
 72
    65
 73
     4
 40
1.0
 49
0.5
 49
-0.25
 49
0.0
 49
-0.25
  0
ENDTAB
  0
TABLE
  2
LAYER
 70
     4
  0
LAYER
  2
LC-003-002-----0
 70
    64
 62
     7
  6
CONTINUOUS
  0
LAYER
  2
LC-004-006-----0
 70
    64
 62
     7
  6
CONTINUOUS
  0
LAYER
  2
LC-006-012-----0
 70
    64
 62
     7
  6
CONTINUOUS
  0
LAYER
  2
LC-001-150-----0
 70
    64
 62
     7
  6
CONTINUOUS
  0
ENDTAB
  0
TABLE
  2
STYLE
 70
     1
  0
STYLE
  2
TXT8
 70
    64
 40
0.0
 41
1.0
 50
0.0
 71
     0
 42
3.500000
  3
TXT8
  4

  0
ENDTAB
  0
ENDSEC
  0
SECTION
  2
BLOCKS
  0
ENDSEC
  0
SECTION
  2
ENTITIES
  0
LINE
  8
LC-003-002-----0
 62
     1
  6
CONTINUOUS
 10
92.528107
 20
612.268433
 11
92.528107
 21
604.768433
  0
LINE
  8
LC-003-002-----0
 62
     1
  6
CONTINUOUS
 10
92.528107
 20
604.768433
 11
166.528107
 21
604.768433
  0
LINE
  8
LC-003-002-----0
 62
     1
  6
CONTINUOUS
 10
94.028107
 20
613.768433
 11
110.137383
 21
613.768433
  0
LINE
  8
LC-003-002-----0
 62
     1
  6
CONTINUOUS
 10
166.528107
 20
612.268433
 11
166.528107
 21
604.768433
  0
ARC
  8
LC-003-002-----0
 62
     1
  6
CONTINUOUS
 10
94.028107
 20
612.268433
 40
1.500000
 50
90.000003
 51
180.000009
  0
ARC
  8
LC-003-002-----0
 62
     1
  6
CONTINUOUS
 10
165.028107
 20
612.268433
 40
1.500000
 50
0.000000
 51
90.000003
  0
LINE
  8
LC-004-006-----0
 62
     2
  6
DASHDOT
 10
129.528107
 20
600.194092
 11
129.528107
 21
668.716980
  0
LINE
  8
LC-004-006-----0
 62
     2
  6
DASHDOT
 10
159.528107
 20
602.101440
 11
159.528107
 21
617.098022
  0
LINE
  8
LC-004-006-----0
 62
     2
  6
DASHDOT
 10
100.580437
 20
634.768433
 11
158.247910
 21
634.768433
  0
CIRCLE
  8
LC-003-002-----0
 62
     1
  6
CONTINUOUS
 10
129.528107
 20
634.768433
 40
12.500000
  0
CIRCLE
  8
LC-003-002-----0
 62
     1
  6
CONTINUOUS
 10
129.528107
 20
634.768433
 40
20.000000
  0
CIRCLE
  8
LC-003-002-----0
 62
     1
  6
CONTINUOUS
 10
129.528107
 20
634.768433
 40
18.000000
  0
LINE
  8
LC-003-002-----0
 62
     1
  6
CONTINUOUS
 10
166.477402
 20
612.655090
 11
158.514160
 21
642.502014
  0
LINE
  8
LC-003-002-----0
 62
     1
  6
CONTINUOUS
 10
92.533813
 20
612.399170
 11
95.584473
 21
647.268433
  0
LINE
  8
LC-003-002-----0
 62
     1
  6
CONTINUOUS
 10
97.965096
 20
658.768433
 11
111.034859
 21
658.768433
  0
ARC
  8
LC-003-002-----0
 62
     1
  6
CONTINUOUS
 10
97.965096
 20
657.268433
 40
1.500000
 50
90.000003
 51
175.000006
  0
ARC
  8
LC-003-002-----0
 62
     1
  6
CONTINUOUS
 10
111.034859
 20
660.268433
 40
1.500000
 50
269.999997
 51
305.950568
  0
ARC
  8
LC-003-002-----0
 62
     1
  6
CONTINUOUS
 10
129.528107
 20
634.768433
 40
30.000000
 50
14.938708
 51
125.950573
  0
LINE
  8
LC-006-012-----0
 62
     2
  6
DASHED
 10
162.278107
 20
604.768433
 11
162.278107
 21
613.768433
  0
LINE
  8
LC-006-012-----0
 62
     2
  6
DASHED
 10
156.778107
 20
604.768433
 11
156.778107
 21
613.768433
  0
LINE
  8
LC-004-006-----0
 62
     2
  6
DASHDOT
 10
99.528107
 20
602.101440
 11
99.528107
 21
617.098022
  0
LINE
  8
LC-006-012-----0
 62
     2
  6
DASHED
 10
96.778107
 20
604.768433
 11
96.778107
 21
613.768433
  0
LINE
  8
LC-006-012-----0
 62
     2
  6
DASHED
 10
102.278107
 20
604.768433
 11
102.278107
 21
613.768433
  0
LINE
  8
LC-003-002-----0
 62
     1
  6
CONTINUOUS
 10
148.918823
 20
613.768433
 11
165.028107
 21
613.768433
  0
LINE
  8
LC-003-002-----0
 62
     1
  6
CONTINUOUS
 10
128.428101
 20
654.738159
 11
128.428101
 21
659.486145
  0
LINE
  8
LC-003-002-----0
 62
     1
  6
CONTINUOUS
 10
130.628098
 20
654.738159
 11
130.628098
 21
659.486145
  0
ARC
  8
LC-003-002-----0
 62
     1
  6
CONTINUOUS
 10
110.137383
 20
615.268433
 40
1.500000
 50
269.999997
 51
45.160996
  0
ARC
  8
LC-003-002-----0
 62
     1
  6
CONTINUOUS
 10
148.918823
 20
615.268433
 40
1.500000
 50
134.838999
 51
269.999997
  0
LINE
  8
LC-003-002-----0
 62
     1
  6
CONTINUOUS
 10
233.684204
 20
604.768433
 11
287.684204
 21
604.768433
  0
LINE
  8
LC-003-002-----0
 62
     1
  6
CONTINUOUS
 10
287.684204
 20
604.768433
 11
287.684204
 21
612.268433
  0
LINE
  8
LC-003-002-----0
 62
     1
  6
CONTINUOUS
 10
254.184204
 20
664.768433
 11
267.184204
 21
664.768433
  0
LINE
  8
LC-004-006-----0
 62
     2
  6
DASHDOT
 10
260.684204
 20
600.194092
 11
260.684204
 21
668.716980
  0
LINE
  8
LC-003-002-----0
 62
     1
  6
CONTINUOUS
 10
233.684204
 20
604.768433
 11
233.684204
 21
612.268433
  0
LINE
  8
LC-003-002-----0
 62
     1
  6
CONTINUOUS
 10
235.184204
 20
613.768433
 11
286.184204
 21
613.768433
  0
ARC
  8
LC-003-002-----0
 62
     1
  6
CONTINUOUS
 10
235.184204
 20
612.268433
 40
1.500000
 50
90.000003
 51
180.000009
  0
ARC
  8
LC-003-002-----0
 62
     1
  6
CONTINUOUS
 10
286.184204
 20
612.268433
 40
1.500000
 50
0.000000
 51
90.000003
  0
LINE
  8
LC-003-002-----0
 62
     1
  6
CONTINUOUS
 10
242.184204
 20
660.768433
 11
251.684204
 21
660.768433
  0
LINE
  8
LC-003-002-----0
 62
     1
  6
CONTINUOUS
 10
280.684204
 20
615.268433
 11
280.684204
 21
659.268433
  0
LINE
  8
LC-003-002-----0
 62
     1
  6
CONTINUOUS
 10
240.684204
 20
615.268433
 11
240.684204
 21
659.268433
  0
ARC
  8
LC-003-002-----0
 62
     1
  6
CONTINUOUS
 10
242.184204
 20
659.268433
 40
1.500000
 50
90.000003
 51
180.000009
  0
ARC
  8
LC-003-002-----0
 62
     1
  6
CONTINUOUS
 10
279.184204
 20
659.268433
 40
1.500000
 50
0.000000
 51
90.000003
  0
ARC
  8
LC-003-002-----0
 62
     1
  6
CONTINUOUS
 10
239.184204
 20
615.268433
 40
1.500000
 50
269.999997
 51
0.000000
  0
ARC
  8
LC-003-002-----0
 62
     1
  6
CONTINUOUS
 10
282.184204
 20
615.268433
 40
1.500000
 50
180.000009
 51
269.999997
  0
LINE
  8
LC-003-002-----0
 62
     1
  6
CONTINUOUS
 10
268.684204
 20
615.268433
 11
268.684204
 21
647.268433
  0
LINE
  8
LC-003-002-----0
 62
     1
  6
CONTINUOUS
 10
252.684204
 20
615.268433
 11
252.684204
 21
647.268433
  0
ARC
  8
LC-003-002-----0
 62
     1
  6
CONTINUOUS
 10
251.184204
 20
615.268433
 40
1.500000
 50
269.999997
 51
0.000000
  0
ARC
  8
LC-003-002-----0
 62
     1
  6
CONTINUOUS
 10
254.184204
 20
663.268433
 40
1.500000
 50
90.000003
 51
180.000009
  0
ARC
  8
LC-003-002-----0
 62
     1
  6
CONTINUOUS
 10
267.184204
 20
663.268433
 40
1.500000
 50
0.000000
 51
90.000003
  0
ARC
  8
LC-003-002-----0
 62
     1
  6
CONTINUOUS
 10
129.528107
 20
633.668396
 40
22.049999
 50
112.955913
 51
67.044092
  0
ARC
  8
LC-003-002-----0
 62
     1
  6
CONTINUOUS
 10
270.184204
 20
615.268433
 40
1.500000
 50
180.000009
 51
269.999997
  0
LINE
  8
LC-003-002-----0
 62
     1
  6
CONTINUOUS
 10
254.184204
 20
658.768433
 11
267.184204
 21
658.768433
  0
LINE
  8
LC-003-002-----0
 62
     1
  6
CONTINUOUS
 10
269.684204
 20
660.768433
 11
279.184204
 21
660.768433
  0
ARC
  8
LC-003-002-----0
 62
     1
  6
CONTINUOUS
 10
254.184204
 20
657.268433
 40
1.500000
 50
90.000003
 51
180.000009
  0
ARC
  8
LC-003-002-----0
 62
     1
  6
CONTINUOUS
 10
267.184204
 20
657.268433
 40
1.500000
 50
0.000000
 51
90.000003
  0
ARC
  8
LC-003-002-----0
 62
     1
  6
CONTINUOUS
 10
251.684204
 20
661.768433
 40
1.000000
 50
269.999997
 51
0.000000
  0
ARC
  8
LC-003-002-----0
 62
     1
  6
CONTINUOUS
 10
269.684204
 20
661.768433
 40
1.000000
 50
180.000009
 51
269.999997
  0
LINE
  8
LC-004-006-----0
 62
     2
  6
DASHDOT
 10
240.684204
 20
602.101440
 11
240.684204
 21
617.098022
  0
LINE
  8
LC-003-002-----0
 62
     1
  6
CONTINUOUS
 10
120.928101
 20
653.972168
 11
121.857758
 21
656.772583
  0
LINE
  8
LC-003-002-----0
 62
     1
  6
CONTINUOUS
 10
124.213951
 20
658.786987
 11
128.428101
 21
659.486145
  0
LINE
  8
LC-004-006-----0
 62
     2
  6
DASHDOT
 10
280.684204
 20
602.101440
 11
280.684204
 21
617.098022
  0
LINE
  8
LC-006-012-----0
 62
     2
  6
DASHED
 10
283.434204
 20
604.768433
 11
283.434204
 21
613.768433
  0
LINE
  8
LC-003-002-----0
 62
     1
  6
CONTINUOUS
 10
130.628098
 20
659.486145
 11
134.842255
 21
658.786987
  0
LINE
  8
LC-003-002-----0
 62
     1
  6
CONTINUOUS
 10
138.128098
 20
653.972168
 11
137.198441
 21
656.772583
  0
CIRCLE
  8
LC-003-002-----0
 62
     1
  6
CONTINUOUS
 10
133.128098
 20
656.486145
 40
1.250000
  0
LINE
  8
LC-006-012-----0
 62
     2
  6
DASHED
 10
277.934204
 20
604.768433
 11
277.934204
 21
613.768433
  0
CIRCLE
  8
LC-003-002-----0
 62
     1
  6
CONTINUOUS
 10
125.928101
 20
656.486145
 40
1.250000
  0
ARC
  8
LC-003-002-----0
 62
     1
  6
CONTINUOUS
 10
124.704971
 20
655.827393
 40
3.000000
 50
99.420124
 51
161.635416
  0
ARC
  8
LC-003-002-----0
 62
     1
  6
CONTINUOUS
 10
134.351242
 20
655.827393
 40
3.000000
 50
18.364581
 51
80.579874
  0
LINE
  8
LC-003-002-----0
 62
     1
  6
CONTINUOUS
 10
232.934204
 20
614.768433
 11
238.834198
 21
614.768433
  0
LINE
  8
LC-006-012-----0
 62
     2
  6
DASHED
 10
237.934204
 20
604.768433
 11
237.934204
 21
613.768433
  0
LINE
  8
LC-006-012-----0
 62
     2
  6
DASHED
 10
243.434204
 20
604.768433
 11
243.434204
 21
613.768433
  0
LINE
  8
LC-003-002-----0
 62
     1
  6
CONTINUOUS
 10
232.934204
 20
654.768433
 11
238.834198
 21
654.768433
  0
LINE
  8
LC-003-002-----0
 62
     1
  6
CONTINUOUS
 10
289.684204
 20
616.018433
 11
289.684204
 21
653.518433
  0
LINE
  8
LC-003-002-----0
 62
     1
  6
CONTINUOUS
 10
231.684204
 20
616.018433
 11
231.684204
 21
653.518433
  0
ARC
  8
LC-003-002-----0
 62
     1
  6
CONTINUOUS
 10
232.934204
 20
653.518433
 40
1.250000
 50
90.000003
 51
180.000009
  0
ARC
  8
LC-003-002-----0
 62
     1
  6
CONTINUOUS
 10
232.934204
 20
616.018433
 40
1.250000
 50
180.000009
 51
269.999997
  0
ARC
  8
LC-003-002-----0
 62
     1
  6
CONTINUOUS
 10
288.434204
 20
653.518433
 40
1.250000
 50
0.000000
 51
90.000003
  0
LINE
  8
LC-006-012-----0
 62
     2
  6
DASHED
 10
240.684204
 20
654.768433
 11
282.534210
 21
654.768433
  0
LINE
  8
LC-003-002-----0
 62
     1
  6
CONTINUOUS
 10
282.534210
 20
654.768433
 11
288.434204
 21
654.768433
  0
LINE
  8
LC-003-002-----0
 62
     1
  6
CONTINUOUS
 10
282.534210
 20
614.768433
 11
288.434204
 21
614.768433
  0
LINE
  8
LC-006-012-----0
 62
     2
  6
DASHED
 10
238.834198
 20
614.768433
 11
282.534210
 21
614.768433
  0
LINE
  8
LC-003-002-----0
 62
     1
  6
CONTINUOUS
 10
238.834198
 20
659.486145
 11
240.684204
 21
659.486145
  0
LINE
  8
LC-003-002-----0
 62
     1
  6
CONTINUOUS
 10
238.834198
 20
613.768433
 11
238.834198
 21
659.486145
  0
LINE
  8
LC-003-002-----0
 62
     1
  6
CONTINUOUS
 10
282.534210
 20
613.768433
 11
282.534210
 21
659.486145
  0
LINE
  8
LC-003-002-----0
 62
     1
  6
CONTINUOUS
 10
282.534210
 20
659.486145
 11
280.684204
 21
659.486145
  0
LINE
  8
LC-003-002-----0
 62
     1
  6
CONTINUOUS
 10
238.834198
 20
653.972168
 11
240.684204
 21
653.972168
  0
LINE
  8
LC-003-002-----0
 62
     1
  6
CONTINUOUS
 10
282.534210
 20
653.972168
 11
280.684204
 21
653.972168
  0
LINE
  8
LC-003-002-----0
 62
     1
  6
CONTINUOUS
 10
215.645081
 20
647.268433
 11
231.684204
 21
647.268433
  0
LINE
  8
LC-003-002-----0
 62
     1
  6
CONTINUOUS
 10
214.680954
 20
622.268433
 11
231.684204
 21
622.268433
  0
LINE
  8
LC-004-006-----0
 62
     2
  6
DASHDOT
 10
209.495285
 20
634.768433
 11
310.574463
 21
634.768433
  0
LINE
  8
LC-001-150-----0
 62
     2
  6
CONTINUOUS
 10
305.542572
 20
622.268433
 11
307.336731
 21
628.123596
  0
LINE
  8
LC-001-150-----0
 62
     2
  6
CONTINUOUS
 10
307.336731
 20
628.123596
 11
306.251923
 21
641.112122
  0
LINE
  8
LC-001-150-----0
 62
     2
  6
CONTINUOUS
 10
306.251923
 20
641.112122
 11
306.576416
 21
647.268433
  0
LINE
  8
LC-001-150-----0
 62
     2
  6
CONTINUOUS
 10
214.680954
 20
622.268433
 11
215.770493
 21
629.244934
  0
LINE
  8
LC-001-150-----0
 62
     2
  6
CONTINUOUS
 10
215.770493
 20
629.244934
 11
215.119598
 21
641.752869
  0
LINE
  8
LC-001-150-----0
 62
     2
  6
CONTINUOUS
 10
215.119598
 20
641.752869
 11
215.645081
 21
647.268433
  0
LINE
  8
LC-006-012-----0
 62
     2
  6
DASHED
 10
231.684204
 20
647.268433
 11
289.684204
 21
647.268433
  0
LINE
  8
LC-006-012-----0
 62
     2
  6
DASHED
 10
231.684204
 20
622.268433
 11
289.684204
 21
622.268433
  0
LINE
  8
LC-003-002-----0
 62
     1
  6
CONTINUOUS
 10
289.684204
 20
622.268433
 11
305.542572
 21
622.268433
  0
LINE
  8
LC-003-002-----0
 62
     1
  6
CONTINUOUS
 10
289.684204
 20
647.268433
 11
306.576416
 21
647.268433
  0
LINE
  8
LC-003-002-----0
 62
     1
  6
CONTINUOUS
 10
92.528107
 20
537.289673
 11
92.528107
 21
486.289673
  0
LINE
  8
LC-003-002-----0
 62
     1
  6
CONTINUOUS
 10
94.028107
 20
484.789673
 11
109.528107
 21
484.789673
  0
LINE
  8
LC-003-002-----0
 62
     1
  6
CONTINUOUS
 10
166.528107
 20
537.289673
 11
166.528107
 21
486.289673
  0
LINE
  8
LC-003-002-----0
 62
     1
  6
CONTINUOUS
 10
94.028107
 20
538.789673
 11
109.528107
 21
538.789673
  0
ARC
  8
LC-003-002-----0
 62
     1
  6
CONTINUOUS
 10
94.028107
 20
537.289673
 40
1.500000
 50
90.000003
 51
180.000009
  0
ARC
  8
LC-003-002-----0
 62
     1
  6
CONTINUOUS
 10
165.028107
 20
537.289673
 40
1.500000
 50
0.000000
 51
90.000003
  0
ARC
  8
LC-003-002-----0
 62
     1
  6
CONTINUOUS
 10
165.028107
 20
486.289673
 40
1.500000
 50
269.999997
 51
0.000000
  0
ARC
  8
LC-003-002-----0
 62
     1
  6
CONTINUOUS
 10
94.028107
 20
486.289673
 40
1.500000
 50
180.000009
 51
269.999997
  0
LINE
  8
LC-004-006-----0
 62
     2
  6
DASHDOT
 10
88.174049
 20
511.789673
 11
171.898239
 21
511.789673
  0
LINE
  8
LC-004-006-----0
 62
     2
  6
DASHDOT
 10
95.147659
 20
531.789673
 11
104.043213
 21
531.789673
  0
LINE
  8
LC-004-006-----0
 62
     2
  6
DASHDOT
 10
99.528107
 20
536.683655
 11
99.528107
 21
526.972839
  0
CIRCLE
  8
LC-003-002-----0
 62
     1
  6
CONTINUOUS
 10
99.528107
 20
531.789673
 40
2.750000
  0
LINE
  8
LC-004-006-----0
 62
     2
  6
DASHDOT
 10
95.147659
 20
491.789673
 11
104.043213
 21
491.789673
  0
LINE
  8
LC-004-006-----0
 62
     2
  6
DASHDOT
 10
99.528107
 20
486.895691
 11
99.528107
 21
496.606506
  0
CIRCLE
  8
LC-003-002-----0
 62
     1
  6
CONTINUOUS
 10
99.528107
 20
491.789673
 40
2.750000
  0
LINE
  8
LC-004-006-----0
 62
     2
  6
DASHDOT
 10
163.908539
 20
531.789673
 11
155.013000
 21
531.789673
  0
LINE
  8
LC-004-006-----0
 62
     2
  6
DASHDOT
 10
159.528107
 20
536.683655
 11
159.528107
 21
526.972839
  0
CIRCLE
  8
LC-003-002-----0
 62
     1
  6
CONTINUOUS
 10
159.528107
 20
531.789673
 40
2.750000
  0
LINE
  8
LC-004-006-----0
 62
     2
  6
DASHDOT
 10
163.908539
 20
491.789673
 11
155.013000
 21
491.789673
  0
LINE
  8
LC-004-006-----0
 62
     2
  6
DASHDOT
 10
159.528107
 20
486.895691
 11
159.528107
 21
496.606506
  0
CIRCLE
  8
LC-003-002-----0
 62
     1
  6
CONTINUOUS
 10
159.528107
 20
491.789673
 40
2.750000
  0
LINE
  8
LC-003-002-----0
 62
     1
  6
CONTINUOUS
 10
92.528107
 20
519.789673
 11
166.528107
 21
519.789673
  0
LINE
  8
LC-003-002-----0
 62
     1
  6
CONTINUOUS
 10
92.528107
 20
503.789673
 11
166.528107
 21
503.789673
  0
LINE
  8
LC-003-002-----0
 62
     1
  6
CONTINUOUS
 10
96.470802
 20
518.289673
 11
96.470802
 21
505.289673
  0
ARC
  8
LC-003-002-----0
 62
     1
  6
CONTINUOUS
 10
97.970802
 20
518.289673
 40
1.500000
 50
90.000003
 51
180.000009
  0
ARC
  8
LC-003-002-----0
 62
     1
  6
CONTINUOUS
 10
97.970802
 20
505.289673
 40
1.500000
 50
180.000009
 51
269.999997
  0
LINE
  8
LC-003-002-----0
 62
     1
  6
CONTINUOUS
 10
103.528107
 20
530.289673
 11
103.528107
 21
521.289673
  0
LINE
  8
LC-003-002-----0
 62
     1
  6
CONTINUOUS
 10
155.528107
 20
530.289673
 11
155.528107
 21
521.289673
  0
LINE
  8
LC-003-002-----0
 62
     1
  6
CONTINUOUS
 10
105.028107
 20
531.789673
 11
154.028107
 21
531.789673
  0
LINE
  8
LC-003-002-----0
 62
     1
  6
CONTINUOUS
 10
105.028107
 20
491.789673
 11
154.028107
 21
491.789673
  0
ARC
  8
LC-003-002-----0
 62
     1
  6
CONTINUOUS
 10
105.028107
 20
530.289673
 40
1.500000
 50
90.000003
 51
180.000009
  0
ARC
  8
LC-003-002-----0
 62
     1
  6
CONTINUOUS
 10
154.028107
 20
530.289673
 40
1.500000
 50
0.000000
 51
90.000003
  0
ARC
  8
LC-003-002-----0
 62
     1
  6
CONTINUOUS
 10
154.028107
 20
493.289673
 40
1.500000
 50
269.999997
 51
0.000000
  0
ARC
  8
LC-003-002-----0
 62
     1
  6
CONTINUOUS
 10
105.028107
 20
493.289673
 40
1.500000
 50
180.000009
 51
269.999997
  0
LINE
  8
LC-003-002-----0
 62
     1
  6
CONTINUOUS
 10
103.528107
 20
502.289673
 11
103.528107
 21
493.289673
  0
LINE
  8
LC-003-002-----0
 62
     1
  6
CONTINUOUS
 10
155.528107
 20
502.289673
 11
155.528107
 21
493.289673
  0
LINE
  8
LC-003-002-----0
 62
     1
  6
CONTINUOUS
 10
107.505554
 20
533.639648
 11
107.505554
 21
531.789673
  0
LINE
  8
LC-003-002-----0
 62
     1
  6
CONTINUOUS
 10
151.550644
 20
533.639648
 11
151.550644
 21
531.789673
  0
LINE
  8
LC-003-002-----0
 62
     1
  6
CONTINUOUS
 10
107.505554
 20
533.639648
 11
151.550644
 21
533.639648
  0
LINE
  8
LC-003-002-----0
 62
     1
  6
CONTINUOUS
 10
107.505554
 20
489.939667
 11
107.505554
 21
491.789673
  0
LINE
  8
LC-003-002-----0
 62
     1
  6
CONTINUOUS
 10
151.550644
 20
489.939667
 11
151.550644
 21
491.789673
  0
LINE
  8
LC-003-002-----0
 62
     1
  6
CONTINUOUS
 10
128.428101
 20
533.639648
 11
128.428101
 21
531.789673
  0
LINE
  8
LC-003-002-----0
 62
     1
  6
CONTINUOUS
 10
130.628098
 20
533.639648
 11
130.628098
 21
531.789673
  0
LINE
  8
LC-003-002-----0
 62
     1
  6
CONTINUOUS
 10
107.505554
 20
489.939667
 11
151.550644
 21
489.939667
  0
LINE
  8
LC-003-002-----0
 62
     1
  6
CONTINUOUS
 10
128.428101
 20
489.939667
 11
128.428101
 21
491.789673
  0
LINE
  8
LC-003-002-----0
 62
     1
  6
CONTINUOUS
 10
130.628098
 20
489.939667
 11
130.628098
 21
491.789673
  0
LINE
  8
LC-006-012-----0
 62
     2
  6
DASHED
 10
109.528107
 20
533.639648
 11
109.528107
 21
489.939697
  0
LINE
  8
LC-006-012-----0
 62
     2
  6
DASHED
 10
149.528107
 20
533.639648
 11
149.528107
 21
489.939697
  0
LINE
  8
LC-003-002-----0
 62
     1
  6
CONTINUOUS
 10
110.778107
 20
540.789673
 11
148.278107
 21
540.789673
  0
LINE
  8
LC-003-002-----0
 62
     1
  6
CONTINUOUS
 10
110.778107
 20
482.789673
 11
148.278107
 21
482.789673
  0
ARC
  8
LC-003-002-----0
 62
     1
  6
CONTINUOUS
 10
110.778107
 20
539.539673
 40
1.250000
 50
90.000003
 51
180.000009
  0
ARC
  8
LC-003-002-----0
 62
     1
  6
CONTINUOUS
 10
148.278107
 20
539.539673
 40
1.250000
 50
0.000000
 51
90.000003
  0
ARC
  8
LC-003-002-----0
 62
     1
  6
CONTINUOUS
 10
148.278107
 20
484.039673
 40
1.250000
 50
269.999997
 51
0.000000
  0
ARC
  8
LC-003-002-----0
 62
     1
  6
CONTINUOUS
 10
110.778107
 20
484.039673
 40
1.250000
 50
180.000009
 51
269.999997
  0
LINE
  8
LC-006-012-----0
 62
     2
  6
DASHED
 10
109.528107
 20
484.789673
 11
149.528107
 21
484.789673
  0
LINE
  8
LC-003-002-----0
 62
     1
  6
CONTINUOUS
 10
149.528107
 20
484.789673
 11
165.028107
 21
484.789673
  0
LINE
  8
LC-006-012-----0
 62
     2
  6
DASHED
 10
109.528107
 20
538.789673
 11
149.528107
 21
538.789673
  0
LINE
  8
LC-003-002-----0
 62
     1
  6
CONTINUOUS
 10
149.528107
 20
538.789673
 11
165.028107
 21
538.789673
  0
LINE
  8
LC-003-002-----0
 62
     1
  6
CONTINUOUS
 10
109.528107
 20
539.539673
 11
109.528107
 21
533.639648
  0
LINE
  8
LC-003-002-----0
 62
     1
  6
CONTINUOUS
 10
149.528107
 20
539.539673
 11
149.528107
 21
533.639648
  0
LINE
  8
LC-003-002-----0
 62
     1
  6
CONTINUOUS
 10
149.528107
 20
484.039673
 11
149.528107
 21
489.939667
  0
LINE
  8
LC-003-002-----0
 62
     1
  6
CONTINUOUS
 10
109.528107
 20
484.039673
 11
109.528107
 21
489.939667
  0
LINE
  8
LC-004-006-----0
 62
     2
  6
DASHDOT
 10
129.528107
 20
557.151672
 11
129.528107
 21
465.892975
  0
LINE
  8
LC-001-150-----0
 62
     2
  6
CONTINUOUS
 10
117.028107
 20
553.879272
 11
125.647896
 21
553.097534
  0
LINE
  8
LC-001-150-----0
 62
     2
  6
CONTINUOUS
 10
125.647896
 20
553.097534
 11
136.823837
 21
554.370789
  0
LINE
  8
LC-001-150-----0
 62
     2
  6
CONTINUOUS
 10
136.823837
 20
554.370789
 11
142.028107
 21
553.831177
  0
LINE
  8
LC-001-150-----0
 62
     2
  6
CONTINUOUS
 10
117.028107
 20
469.700043
 11
125.647896
 21
470.481781
  0
LINE
  8
LC-001-150-----0
 62
     2
  6
CONTINUOUS
 10
125.647896
 20
470.481781
 11
136.823837
 21
469.208588
  0
LINE
  8
LC-001-150-----0
 62
     2
  6
CONTINUOUS
 10
136.823837
 20
469.208588
 11
142.028107
 21
469.748169
  0
LINE
  8
LC-003-002-----0
 62
     1
  6
CONTINUOUS
 10
117.028107
 20
482.789673
 11
117.028107
 21
469.700043
  0
LINE
  8
LC-003-002-----0
 62
     1
  6
CONTINUOUS
 10
142.028107
 20
482.789673
 11
142.028107
 21
469.748169
  0
LINE
  8
LC-003-002-----0
 62
     1
  6
CONTINUOUS
 10
142.028107
 20
553.831177
 11
142.028107
 21
540.789673
  0
LINE
  8
LC-006-012-----0
 62
     2
  6
DASHED
 10
142.028107
 20
540.789673
 11
142.028107
 21
482.789673
  0
LINE
  8
LC-003-002-----0
 62
     1
  6
CONTINUOUS
 10
117.028107
 20
553.879272
 11
117.028107
 21
540.789673
  0
LINE
  8
LC-006-012-----0
 62
     2
  6
DASHED
 10
117.028107
 20
540.789673
 11
117.028107
 21
482.789673
  0
ARC
  8
LC-003-002-----0
 62
     1
  6
CONTINUOUS
 10
102.028107
 20
521.289673
 40
1.500000
 50
269.999997
 51
0.000000
  0
ARC
  8
LC-003-002-----0
 62
     1
  6
CONTINUOUS
 10
102.028107
 20
502.289673
 40
1.500000
 50
0.000000
 51
90.000003
  0
ARC
  8
LC-003-002-----0
 62
     1
  6
CONTINUOUS
 10
157.028107
 20
521.289673
 40
1.500000
 50
180.000009
 51
269.999997
  0
ARC
  8
LC-003-002-----0
 62
     1
  6
CONTINUOUS
 10
157.028107
 20
502.289673
 40
1.500000
 50
90.000003
 51
180.000009
  0
LINE
  8
LC-003-002-----0
 62
     1
  6
CONTINUOUS
 10
111.034859
 20
518.289673
 11
111.034859
 21
505.289673
  0
ARC
  8
LC-003-002-----0
 62
     1
  6
CONTINUOUS
 10
112.534859
 20
518.289673
 40
1.500000
 50
90.000003
 51
180.000009
  0
ARC
  8
LC-003-002-----0
 62
     1
  6
CONTINUOUS
 10
112.534859
 20
505.289673
 40
1.500000
 50
180.000009
 51
269.999997
  0
LINE
  8
LC-004-006-----0
 62
     2
  6
DASHDOT
 10
104.499977
 20
663.961548
 11
104.499977
 21
638.809204
  0
LINE
  8
LC-003-002-----0
 62
     1
  6
CONTINUOUS
 10
95.715706
 20
648.768433
 11
113.459732
 21
648.768433
  0
LINE
  8
LC-003-002-----0
 62
     1
  6
CONTINUOUS
 10
95.584473
 20
647.268433
 11
112.171761
 21
647.268433
  0
LINE
  8
LC-006-012-----0
 62
     2
  6
DASHED
 10
113.459732
 20
648.768433
 11
115.245247
 21
648.768433
  0
LINE
  8
LC-006-012-----0
 62
     2
  6
DASHED
 10
112.171761
 20
647.268433
 11
113.915611
 21
647.268433
  0
LINE
  8
LC-003-002-----0
 62
     1
  6
CONTINUOUS
 10
95.715706
 20
648.768433
 11
96.470802
 21
657.399170
  0
LINE
  8
LC-003-002-----0
 62
     1
  6
CONTINUOUS
 10
106.999977
 20
648.768433
 11
106.999977
 21
647.268433
  0
LINE
  8
LC-003-002-----0
 62
     1
  6
CONTINUOUS
 10
101.999977
 20
648.768433
 11
101.999977
 21
647.268433
  0
LINE
  8
LC-001-150-----0
 62
     2
  6
CONTINUOUS
 10
106.499977
 20
648.768433
 11
106.499977
 21
647.268433
  0
LINE
  8
LC-001-150-----0
 62
     2
  6
CONTINUOUS
 10
102.499977
 20
648.768433
 11
102.499977
 21
647.268433
  0
LINE
  8
LC-003-002-----0
 62
     1
  6
CONTINUOUS
 10
256.065399
 20
661.918396
 11
256.065399
 21
659.268433
  0
ARC
  8
LC-003-002-----0
 62
     1
  6
CONTINUOUS
 10
257.220093
 20
660.188660
 40
2.079762
 50
56.274953
 51
123.725052
  0
LINE
  8
LC-003-002-----0
 62
     1
  6
CONTINUOUS
 10
258.374786
 20
661.918396
 11
258.374786
 21
659.268433
  0
ARC
  8
LC-003-002-----0
 62
     1
  6
CONTINUOUS
 10
260.684204
 20
654.474365
 40
7.794048
 50
72.764300
 51
107.235698
  0
LINE
  8
LC-003-002-----0
 62
     1
  6
CONTINUOUS
 10
262.993591
 20
661.918396
 11
262.993591
 21
659.268433
  0
LINE
  8
LC-003-002-----0
 62
     1
  6
CONTINUOUS
 10
265.303009
 20
661.918396
 11
265.303009
 21
659.268433
  0
ARC
  8
LC-003-002-----0
 62
     1
  6
CONTINUOUS
 10
264.148315
 20
660.188660
 40
2.079762
 50
56.274953
 51
123.725052
  0
LINE
  8
LC-003-002-----0
 62
     1
  6
CONTINUOUS
 10
264.148315
 20
662.268433
 11
257.220093
 21
662.268433
  0
LINE
  8
LC-003-002-----0
 62
     1
  6
CONTINUOUS
 10
265.303009
 20
659.268433
 11
256.065399
 21
659.268433
  0
LINE
  8
LC-003-002-----0
 62
     1
  6
CONTINUOUS
 10
264.777252
 20
659.268433
 11
264.777252
 21
658.768433
  0
LINE
  8
LC-003-002-----0
 62
     1
  6
CONTINUOUS
 10
256.591156
 20
659.268433
 11
256.591156
 21
658.768433
  0
LINE
  8
LC-003-002-----0
 62
     1
  6
CONTINUOUS
 10
264.777252
 20
658.768433
 11
256.591156
 21
658.768433
  0
LINE
  8
LC-004-006-----0
 62
     2
  6
DASHDOT
 10
104.499977
 20
518.202332
 11
104.499977
 21
505.571503
  0
LINE
  8
LC-003-002-----0
 62
     1
  6
CONTINUOUS
 10
263.184204
 20
648.768433
 11
263.184204
 21
647.268433
  0
LINE
  8
LC-003-002-----0
 62
     1
  6
CONTINUOUS
 10
258.184204
 20
648.768433
 11
258.184204
 21
647.268433
  0
LINE
  8
LC-001-150-----0
 62
     2
  6
CONTINUOUS
 10
262.684204
 20
648.768433
 11
262.684204
 21
647.268433
  0
LINE
  8
LC-001-150-----0
 62
     2
  6
CONTINUOUS
 10
258.684204
 20
648.768433
 11
258.684204
 21
647.268433
  0
LINE
  8
LC-003-002-----0
 62
     1
  6
CONTINUOUS
 10
99.881180
 20
661.918396
 11
99.881180
 21
659.268433
  0
ARC
  8
LC-003-002-----0
 62
     1
  6
CONTINUOUS
 10
101.035873
 20
660.188660
 40
2.079762
 50
56.274953
 51
123.725052
  0
LINE
  8
LC-003-002-----0
 62
     1
  6
CONTINUOUS
 10
102.190575
 20
661.918396
 11
102.190575
 21
659.268433
  0
ARC
  8
LC-003-002-----0
 62
     1
  6
CONTINUOUS
 10
104.499977
 20
654.474365
 40
7.794048
 50
72.764300
 51
107.235698
  0
LINE
  8
LC-003-002-----0
 62
     1
  6
CONTINUOUS
 10
106.809380
 20
661.918396
 11
106.809380
 21
659.268433
  0
LINE
  8
LC-003-002-----0
 62
     1
  6
CONTINUOUS
 10
109.118782
 20
661.918396
 11
109.118782
 21
659.268433
  0
ARC
  8
LC-003-002-----0
 62
     1
  6
CONTINUOUS
 10
107.964081
 20
660.188660
 40
2.079762
 50
56.274953
 51
123.725052
  0
LINE
  8
LC-003-002-----0
 62
     1
  6
CONTINUOUS
 10
107.964081
 20
662.268433
 11
101.035873
 21
662.268433
  0
LINE
  8
LC-003-002-----0
 62
     1
  6
CONTINUOUS
 10
109.118782
 20
659.268433
 11
99.881180
 21
659.268433
  0
LINE
  8
LC-003-002-----0
 62
     1
  6
CONTINUOUS
 10
108.593033
 20
659.268433
 11
108.593033
 21
658.768433
  0
LINE
  8
LC-003-002-----0
 62
     1
  6
CONTINUOUS
 10
100.406921
 20
659.268433
 11
100.406921
 21
658.768433
  0
LINE
  8
LC-003-002-----0
 62
     1
  6
CONTINUOUS
 10
108.593033
 20
658.768433
 11
100.406921
 21
658.768433
  0
LINE
  8
LC-003-002-----0
 62
     1
  6
CONTINUOUS
 10
240.684204
 20
648.768433
 11
280.684204
 21
648.768433
  0
LINE
  8
LC-003-002-----0
 62
     1
  6
CONTINUOUS
 10
240.684204
 20
647.268433
 11
280.684204
 21
647.268433
  0
LINE
  8
LC-003-002-----0
 62
     1
  6
CONTINUOUS
 10
252.684204
 20
648.768433
 11
252.684204
 21
663.268433
  0
LINE
  8
LC-003-002-----0
 62
     1
  6
CONTINUOUS
 10
268.684204
 20
648.768433
 11
268.684204
 21
663.268433
  0
LINE
  8
LC-003-002-----0
 62
     1
  6
CONTINUOUS
 10
106.809380
 20
515.789673
 11
109.118782
 21
511.789673
  0
LINE
  8
LC-003-002-----0
 62
     1
  6
CONTINUOUS
 10
99.881172
 20
511.789673
 11
102.190575
 21
507.789673
  0
LINE
  8
LC-003-002-----0
 62
     1
  6
CONTINUOUS
 10
102.190575
 20
515.789673
 11
106.809380
 21
515.789673
  0
LINE
  8
LC-003-002-----0
 62
     1
  6
CONTINUOUS
 10
102.190575
 20
507.789673
 11
106.809380
 21
507.789673
  0
LINE
  8
LC-003-002-----0
 62
     1
  6
CONTINUOUS
 10
99.881172
 20
511.789673
 11
102.190575
 21
515.789673
  0
LINE
  8
LC-003-002-----0
 62
     1
  6
CONTINUOUS
 10
106.809380
 20
507.789673
 11
109.118782
 21
511.789673
  0
CIRCLE
  8
LC-003-002-----0
 62
     1
  6
CONTINUOUS
 10
104.499977
 20
511.789673
 40
4.000000
  0
ARC
  8
LC-003-002-----0
 62
     1
  6
CONTINUOUS
 10
129.528107
 20
634.768433
 40
26.000000
 50
151.264347
 51
147.421027
  0
ENDSEC
  0
EOF
