  0
SECTION
  2
HEADER
  9
$LIMMIN
 10
82.607605
 20
187.631577
  9
$LIMMAX
 10
317.811127
 20
416.660950
  9
$EXTMIN
 10
82.607605
 20
187.631577
  9
$EXTMAX
 10
317.811127
 20
416.660950
  0
ENDSEC
  0
SECTION
  2
TABLES
  0
TABLE
  2
LTYPE
 70
     3
  0
LTYPE
  2
CONTINUOUS
 70
    64
  3
Ausgezogene Linie
 72
    65
 73
     0
 40
0.0
  0
LTYPE
  2
DASHED
 70
    64
  3
__ __ __ __ __ __ __ __ __ __ __ __ __ __ __
 72
    65
 73
     2
 40
0.75
 49
0.5
 49
-0.25
  0
LTYPE
  2
DASHDOT
 70
    64
  3
__ . __ . __ . __ . __ . __ . __ . __ . __ . __
 72
    65
 73
     4
 40
1.0
 49
0.5
 49
-0.25
 49
0.0
 49
-0.25
  0
ENDTAB
  0
TABLE
  2
LAYER
 70
     4
  0
LAYER
  2
LC-003-002-----0
 70
    64
 62
     7
  6
CONTINUOUS
  0
LAYER
  2
LC-004-006-----0
 70
    64
 62
     7
  6
CONTINUOUS
  0
LAYER
  2
LC-006-012-----0
 70
    64
 62
     7
  6
CONTINUOUS
  0
LAYER
  2
LC-001-150-----0
 70
    64
 62
     7
  6
CONTINUOUS
  0
ENDTAB
  0
TABLE
  2
STYLE
 70
     1
  0
STYLE
  2
TXT8
 70
    64
 40
0.0
 41
1.0
 50
0.0
 71
     0
 42
3.500000
  3
TXT8
  4

  0
ENDTAB
  0
ENDSEC
  0
SECTION
  2
BLOCKS
  0
ENDSEC
  0
SECTION
  2
ENTITIES
  0
LINE
  8
LC-003-002-----0
 62
     1
  6
CONTINUOUS
 10
87.102959
 20
350.425964
 11
87.102959
 21
341.925964
  0
LINE
  8
LC-003-002-----0
 62
     1
  6
CONTINUOUS
 10
87.102959
 20
341.925964
 11
171.102951
 21
341.925964
  0
LINE
  8
LC-003-002-----0
 62
     1
  6
CONTINUOUS
 10
88.602959
 20
351.925964
 11
108.126778
 21
351.925964
  0
LINE
  8
LC-004-006-----0
 62
     2
  6
DASHDOT
 10
163.102951
 20
355.479645
 11
163.102951
 21
338.215881
  0
LINE
  8
LC-004-006-----0
 62
     2
  6
DASHDOT
 10
94.710510
 20
376.925964
 11
162.037704
 21
376.925964
  0
LINE
  8
LC-004-006-----0
 62
     2
  6
DASHDOT
 10
129.102951
 20
416.660950
 11
129.102951
 21
338.215881
  0
LINE
  8
LC-003-002-----0
 62
     1
  6
CONTINUOUS
 10
171.102951
 20
350.425964
 11
171.102951
 21
341.925964
  0
ARC
  8
LC-003-002-----0
 62
     1
  6
CONTINUOUS
 10
88.602959
 20
350.425964
 40
1.500000
 50
90.000003
 51
180.000009
  0
ARC
  8
LC-003-002-----0
 62
     1
  6
CONTINUOUS
 10
169.602951
 20
350.425964
 40
1.500000
 50
0.000000
 51
90.000003
  0
CIRCLE
  8
LC-003-002-----0
 62
     1
  6
CONTINUOUS
 10
129.102951
 20
376.925964
 40
15.000000
  0
CIRCLE
  8
LC-003-002-----0
 62
     1
  6
CONTINUOUS
 10
129.102951
 20
376.925964
 40
23.500000
  0
CIRCLE
  8
LC-003-002-----0
 62
     1
  6
CONTINUOUS
 10
129.102951
 20
376.925964
 40
21.000000
  0
LINE
  8
LC-003-002-----0
 62
     1
  6
CONTINUOUS
 10
234.567261
 20
341.925964
 11
294.567261
 21
341.925964
  0
LINE
  8
LC-003-002-----0
 62
     1
  6
CONTINUOUS
 10
171.064499
 20
350.763428
 11
163.205734
 21
384.800018
  0
LINE
  8
LC-003-002-----0
 62
     1
  6
CONTINUOUS
 10
87.108665
 20
350.556702
 11
90.728004
 21
391.925964
  0
LINE
  8
LC-003-002-----0
 62
     1
  6
CONTINUOUS
 10
93.239853
 20
404.925964
 11
107.608772
 21
404.925964
  0
ARC
  8
LC-003-002-----0
 62
     1
  6
CONTINUOUS
 10
93.239853
 20
403.425964
 40
1.500000
 50
90.000003
 51
175.000006
  0
ARC
  8
LC-003-002-----0
 62
     1
  6
CONTINUOUS
 10
107.608772
 20
406.425964
 40
1.500000
 50
269.999997
 51
306.077695
  0
ARC
  8
LC-003-002-----0
 62
     1
  6
CONTINUOUS
 10
129.102951
 20
376.925964
 40
35.000000
 50
13.001287
 51
126.077697
  0
LINE
  8
LC-006-012-----0
 62
     2
  6
DASHED
 10
166.402954
 20
351.925964
 11
166.402954
 21
341.925964
  0
LINE
  8
LC-006-012-----0
 62
     2
  6
DASHED
 10
159.802963
 20
351.925964
 11
159.802963
 21
341.925964
  0
LINE
  8
LC-004-006-----0
 62
     2
  6
DASHDOT
 10
95.102959
 20
355.479645
 11
95.102959
 21
338.215881
  0
LINE
  8
LC-006-012-----0
 62
     2
  6
DASHED
 10
91.802956
 20
351.925964
 11
91.802956
 21
341.925964
  0
LINE
  8
LC-006-012-----0
 62
     2
  6
DASHED
 10
98.402954
 20
351.925964
 11
98.402954
 21
341.925964
  0
LINE
  8
LC-003-002-----0
 62
     1
  6
CONTINUOUS
 10
238.717255
 20
406.541626
 11
240.567261
 21
406.541626
  0
LINE
  8
LC-003-002-----0
 62
     1
  6
CONTINUOUS
 10
240.567261
 20
405.425964
 11
240.567261
 21
406.541626
  0
LINE
  8
LC-003-002-----0
 62
     1
  6
CONTINUOUS
 10
290.417267
 20
406.541626
 11
288.567261
 21
406.541626
  0
LINE
  8
LC-003-002-----0
 62
     1
  6
CONTINUOUS
 10
288.567261
 20
405.425964
 11
288.567261
 21
406.541626
  0
LINE
  8
LC-003-002-----0
 62
     1
  6
CONTINUOUS
 10
290.417267
 20
351.925964
 11
290.417267
 21
406.541626
  0
LINE
  8
LC-003-002-----0
 62
     1
  6
CONTINUOUS
 10
238.717255
 20
400.267334
 11
240.567261
 21
400.267334
  0
LINE
  8
LC-003-002-----0
 62
     1
  6
CONTINUOUS
 10
288.567261
 20
400.267334
 11
290.417267
 21
400.267334
  0
LINE
  8
LC-003-002-----0
 62
     1
  6
CONTINUOUS
 10
232.067261
 20
400.425964
 11
238.717255
 21
400.425964
  0
LINE
  8
LC-003-002-----0
 62
     1
  6
CONTINUOUS
 10
232.067261
 20
353.425964
 11
238.717255
 21
353.425964
  0
LINE
  8
LC-003-002-----0
 62
     1
  6
CONTINUOUS
 10
298.567261
 20
354.925964
 11
298.567261
 21
398.925964
  0
LINE
  8
LC-003-002-----0
 62
     1
  6
CONTINUOUS
 10
230.567261
 20
354.925964
 11
230.567261
 21
398.925964
  0
ARC
  8
LC-003-002-----0
 62
     1
  6
CONTINUOUS
 10
232.067261
 20
398.925964
 40
1.500000
 50
90.000003
 51
180.000009
  0
ARC
  8
LC-003-002-----0
 62
     1
  6
CONTINUOUS
 10
232.067261
 20
354.925964
 40
1.500000
 50
180.000009
 51
269.999997
  0
LINE
  8
LC-003-002-----0
 62
     1
  6
CONTINUOUS
 10
150.079132
 20
351.925964
 11
169.602951
 21
351.925964
  0
ARC
  8
LC-003-002-----0
 62
     1
  6
CONTINUOUS
 10
150.079132
 20
353.425964
 40
1.500000
 50
131.752204
 51
269.999997
  0
ARC
  8
LC-003-002-----0
 62
     1
  6
CONTINUOUS
 10
108.126778
 20
353.425964
 40
1.500000
 50
269.999997
 51
48.247794
  0
LINE
  8
LC-003-002-----0
 62
     1
  6
CONTINUOUS
 10
294.567261
 20
341.925964
 11
294.567261
 21
350.425964
  0
LINE
  8
LC-003-002-----0
 62
     1
  6
CONTINUOUS
 10
234.567261
 20
341.925964
 11
234.567261
 21
350.425964
  0
LINE
  8
LC-004-006-----0
 62
     2
  6
DASHDOT
 10
264.567261
 20
338.215881
 11
264.567261
 21
416.660950
  0
LINE
  8
LC-003-002-----0
 62
     1
  6
CONTINUOUS
 10
236.067261
 20
351.925964
 11
293.067261
 21
351.925964
  0
ARC
  8
LC-003-002-----0
 62
     1
  6
CONTINUOUS
 10
236.067261
 20
350.425964
 40
1.500000
 50
90.000003
 51
180.000009
  0
ARC
  8
LC-003-002-----0
 62
     1
  6
CONTINUOUS
 10
293.067261
 20
350.425964
 40
1.500000
 50
0.000000
 51
90.000003
  0
LINE
  8
LC-003-002-----0
 62
     1
  6
CONTINUOUS
 10
288.567261
 20
353.425964
 11
288.567261
 21
405.425964
  0
LINE
  8
LC-003-002-----0
 62
     1
  6
CONTINUOUS
 10
240.567261
 20
353.425964
 11
240.567261
 21
405.425964
  0
LINE
  8
LC-003-002-----0
 62
     1
  6
CONTINUOUS
 10
242.067261
 20
406.925964
 11
253.067261
 21
406.925964
  0
LINE
  8
LC-003-002-----0
 62
     1
  6
CONTINUOUS
 10
274.567261
 20
353.425964
 11
274.567261
 21
391.925964
  0
ARC
  8
LC-003-002-----0
 62
     1
  6
CONTINUOUS
 10
242.067261
 20
405.425964
 40
1.500000
 50
90.000003
 51
180.000009
  0
ARC
  8
LC-003-002-----0
 62
     1
  6
CONTINUOUS
 10
287.067261
 20
405.425964
 40
1.500000
 50
0.000000
 51
90.000003
  0
ARC
  8
LC-003-002-----0
 62
     1
  6
CONTINUOUS
 10
239.067261
 20
353.425964
 40
1.500000
 50
269.999997
 51
0.000000
  0
ARC
  8
LC-003-002-----0
 62
     1
  6
CONTINUOUS
 10
290.067261
 20
353.425964
 40
1.500000
 50
180.000009
 51
269.999997
  0
LINE
  8
LC-003-002-----0
 62
     1
  6
CONTINUOUS
 10
254.567261
 20
353.425964
 11
254.567261
 21
391.925964
  0
LINE
  8
LC-003-002-----0
 62
     1
  6
CONTINUOUS
 10
256.067261
 20
411.925964
 11
273.067261
 21
411.925964
  0
ARC
  8
LC-003-002-----0
 62
     1
  6
CONTINUOUS
 10
256.067261
 20
410.425964
 40
1.500000
 50
90.000003
 51
180.000009
  0
ARC
  8
LC-003-002-----0
 62
     1
  6
CONTINUOUS
 10
273.067261
 20
410.425964
 40
1.500000
 50
0.000000
 51
90.000003
  0
ARC
  8
LC-003-002-----0
 62
     1
  6
CONTINUOUS
 10
253.067261
 20
353.425964
 40
1.500000
 50
269.999997
 51
0.000000
  0
ARC
  8
LC-003-002-----0
 62
     1
  6
CONTINUOUS
 10
276.067261
 20
353.425964
 40
1.500000
 50
180.000009
 51
269.999997
  0
LINE
  8
LC-003-002-----0
 62
     1
  6
CONTINUOUS
 10
276.067261
 20
406.925964
 11
287.067261
 21
406.925964
  0
ARC
  8
LC-003-002-----0
 62
     1
  6
CONTINUOUS
 10
253.067261
 20
408.425964
 40
1.500000
 50
269.999997
 51
0.000000
  0
ARC
  8
LC-003-002-----0
 62
     1
  6
CONTINUOUS
 10
276.067261
 20
408.425964
 40
1.500000
 50
180.000009
 51
269.999997
  0
LINE
  8
LC-003-002-----0
 62
     1
  6
CONTINUOUS
 10
256.067261
 20
404.925964
 11
273.067261
 21
404.925964
  0
ARC
  8
LC-003-002-----0
 62
     1
  6
CONTINUOUS
 10
256.067261
 20
403.425964
 40
1.500000
 50
90.000003
 51
180.000009
  0
ARC
  8
LC-003-002-----0
 62
     1
  6
CONTINUOUS
 10
273.067261
 20
403.425964
 40
1.500000
 50
0.000000
 51
90.000003
  0
LINE
  8
LC-003-002-----0
 62
     1
  6
CONTINUOUS
 10
238.717255
 20
351.925964
 11
238.717255
 21
406.541626
  0
ARC
  8
LC-003-002-----0
 62
     1
  6
CONTINUOUS
 10
297.067261
 20
354.925964
 40
1.500000
 50
269.999997
 51
0.000000
  0
ARC
  8
LC-003-002-----0
 62
     1
  6
CONTINUOUS
 10
297.067261
 20
398.925964
 40
1.500000
 50
0.000000
 51
90.000003
  0
LINE
  8
LC-006-012-----0
 62
     2
  6
DASHED
 10
238.717255
 20
400.425964
 11
290.417267
 21
400.425964
  0
LINE
  8
LC-003-002-----0
 62
     1
  6
CONTINUOUS
 10
290.417267
 20
400.425964
 11
297.067261
 21
400.425964
  0
LINE
  8
LC-006-012-----0
 62
     2
  6
DASHED
 10
238.717255
 20
353.425964
 11
290.417267
 21
353.425964
  0
LINE
  8
LC-003-002-----0
 62
     1
  6
CONTINUOUS
 10
290.417267
 20
353.425964
 11
297.067261
 21
353.425964
  0
LINE
  8
LC-004-006-----0
 62
     2
  6
DASHDOT
 10
209.079071
 20
376.925964
 11
317.811127
 21
376.925964
  0
LINE
  8
LC-003-002-----0
 62
     1
  6
CONTINUOUS
 10
213.631699
 20
391.925964
 11
230.567261
 21
391.925964
  0
LINE
  8
LC-001-150-----0
 62
     2
  6
CONTINUOUS
 10
315.220154
 20
361.925964
 11
315.504211
 21
368.956238
  0
LINE
  8
LC-001-150-----0
 62
     2
  6
CONTINUOUS
 10
315.504211
 20
368.956238
 11
314.036163
 21
380.117645
  0
LINE
  8
LC-001-150-----0
 62
     2
  6
CONTINUOUS
 10
314.036163
 20
380.117645
 11
314.551605
 21
391.925964
  0
ARC
  8
LC-003-002-----0
 62
     1
  6
CONTINUOUS
 10
129.102951
 20
375.675964
 40
26.500000
 50
111.878622
 51
68.121383
  0
LINE
  8
LC-001-150-----0
 62
     2
  6
CONTINUOUS
 10
213.116623
 20
361.925964
 11
214.096237
 21
368.956238
  0
LINE
  8
LC-001-150-----0
 62
     2
  6
CONTINUOUS
 10
214.096237
 20
368.956238
 11
213.257355
 21
384.459625
  0
LINE
  8
LC-001-150-----0
 62
     2
  6
CONTINUOUS
 10
213.257355
 20
384.459625
 11
213.631699
 21
391.925964
  0
LINE
  8
LC-006-012-----0
 62
     2
  6
DASHED
 10
230.567261
 20
391.925964
 11
298.567261
 21
391.925964
  0
LINE
  8
LC-003-002-----0
 62
     1
  6
CONTINUOUS
 10
213.116623
 20
361.925964
 11
230.567261
 21
361.925964
  0
LINE
  8
LC-006-012-----0
 62
     2
  6
DASHED
 10
230.567261
 20
361.925964
 11
298.567261
 21
361.925964
  0
LINE
  8
LC-003-002-----0
 62
     1
  6
CONTINUOUS
 10
298.567261
 20
361.925964
 11
315.220154
 21
361.925964
  0
LINE
  8
LC-003-002-----0
 62
     1
  6
CONTINUOUS
 10
138.977951
 20
400.267334
 11
137.915283
 21
403.457733
  0
LINE
  8
LC-003-002-----0
 62
     1
  6
CONTINUOUS
 10
135.183029
 20
405.774811
 11
130.352951
 21
406.541626
  0
LINE
  8
LC-003-002-----0
 62
     1
  6
CONTINUOUS
 10
130.352951
 20
400.392700
 11
130.352951
 21
406.541626
  0
LINE
  8
LC-003-002-----0
 62
     1
  6
CONTINUOUS
 10
127.852959
 20
400.392700
 11
127.852959
 21
406.541626
  0
LINE
  8
LC-003-002-----0
 62
     1
  6
CONTINUOUS
 10
127.852959
 20
406.541626
 11
123.022888
 21
405.774811
  0
LINE
  8
LC-003-002-----0
 62
     1
  6
CONTINUOUS
 10
119.227959
 20
400.267334
 11
120.290634
 21
403.457733
  0
CIRCLE
  8
LC-003-002-----0
 62
     1
  6
CONTINUOUS
 10
125.352959
 20
403.091614
 40
1.250000
  0
LINE
  8
LC-003-002-----0
 62
     1
  6
CONTINUOUS
 10
298.567261
 20
391.925964
 11
314.551605
 21
391.925964
  0
CIRCLE
  8
LC-003-002-----0
 62
     1
  6
CONTINUOUS
 10
132.852951
 20
403.091614
 40
1.250000
  0
ARC
  8
LC-003-002-----0
 62
     1
  6
CONTINUOUS
 10
134.642075
 20
402.367462
 40
3.450000
 50
18.422161
 51
80.979098
  0
ARC
  8
LC-003-002-----0
 62
     1
  6
CONTINUOUS
 10
123.563835
 20
402.367462
 40
3.450000
 50
99.020900
 51
161.577837
  0
LINE
  8
LC-004-006-----0
 62
     2
  6
DASHDOT
 10
242.067261
 20
355.479645
 11
242.067261
 21
338.215881
  0
LINE
  8
LC-004-006-----0
 62
     2
  6
DASHDOT
 10
287.067261
 20
355.479645
 11
287.067261
 21
338.215881
  0
LINE
  8
LC-006-012-----0
 62
     2
  6
DASHED
 10
290.367249
 20
351.925964
 11
290.367249
 21
341.925964
  0
LINE
  8
LC-006-012-----0
 62
     2
  6
DASHED
 10
283.767242
 20
351.925964
 11
283.767242
 21
341.925964
  0
LINE
  8
LC-003-002-----0
 62
     1
  6
CONTINUOUS
 10
87.102959
 20
268.232239
 11
87.102959
 21
211.232239
  0
LINE
  8
LC-006-012-----0
 62
     2
  6
DASHED
 10
238.767258
 20
351.925964
 11
238.767258
 21
341.925964
  0
LINE
  8
LC-006-012-----0
 62
     2
  6
DASHED
 10
245.367249
 20
351.925964
 11
245.367249
 21
341.925964
  0
LINE
  8
LC-003-002-----0
 62
     1
  6
CONTINUOUS
 10
88.602959
 20
209.732239
 11
105.602959
 21
209.732239
  0
LINE
  8
LC-003-002-----0
 62
     1
  6
CONTINUOUS
 10
171.102951
 20
268.232239
 11
171.102951
 21
211.232239
  0
LINE
  8
LC-003-002-----0
 62
     1
  6
CONTINUOUS
 10
88.602959
 20
269.732239
 11
105.602959
 21
269.732239
  0
LINE
  8
LC-004-006-----0
 62
     2
  6
DASHDOT
 10
82.607605
 20
239.732239
 11
175.672256
 21
239.732239
  0
ARC
  8
LC-003-002-----0
 62
     1
  6
CONTINUOUS
 10
88.602959
 20
268.232239
 40
1.500000
 50
90.000003
 51
180.000009
  0
ARC
  8
LC-003-002-----0
 62
     1
  6
CONTINUOUS
 10
88.602959
 20
211.232239
 40
1.500000
 50
180.000009
 51
269.999997
  0
ARC
  8
LC-003-002-----0
 62
     1
  6
CONTINUOUS
 10
169.602951
 20
211.232239
 40
1.500000
 50
269.999997
 51
0.000000
  0
ARC
  8
LC-003-002-----0
 62
     1
  6
CONTINUOUS
 10
169.602951
 20
268.232239
 40
1.500000
 50
0.000000
 51
90.000003
  0
LINE
  8
LC-004-006-----0
 62
     2
  6
DASHDOT
 10
129.102951
 20
291.981720
 11
129.102951
 21
187.631577
  0
LINE
  8
LC-003-002-----0
 62
     1
  6
CONTINUOUS
 10
87.102959
 20
249.732239
 11
171.102951
 21
249.732239
  0
LINE
  8
LC-003-002-----0
 62
     1
  6
CONTINUOUS
 10
87.102959
 20
229.732239
 11
171.102951
 21
229.732239
  0
LINE
  8
LC-003-002-----0
 62
     1
  6
CONTINUOUS
 10
91.745567
 20
248.232239
 11
91.745567
 21
231.232239
  0
ARC
  8
LC-003-002-----0
 62
     1
  6
CONTINUOUS
 10
93.245567
 20
231.232239
 40
1.500000
 50
180.000009
 51
269.999997
  0
ARC
  8
LC-003-002-----0
 62
     1
  6
CONTINUOUS
 10
93.245567
 20
248.232239
 40
1.500000
 50
90.000003
 51
180.000009
  0
LINE
  8
LC-003-002-----0
 62
     1
  6
CONTINUOUS
 10
99.102959
 20
262.232239
 11
99.102959
 21
251.232239
  0
LINE
  8
LC-003-002-----0
 62
     1
  6
CONTINUOUS
 10
159.102951
 20
262.232239
 11
159.102951
 21
251.232239
  0
LINE
  8
LC-003-002-----0
 62
     1
  6
CONTINUOUS
 10
100.602959
 20
263.732239
 11
157.602951
 21
263.732239
  0
LINE
  8
LC-003-002-----0
 62
     1
  6
CONTINUOUS
 10
100.602959
 20
215.732239
 11
157.602951
 21
215.732239
  0
ARC
  8
LC-003-002-----0
 62
     1
  6
CONTINUOUS
 10
100.602959
 20
262.232239
 40
1.500000
 50
90.000003
 51
180.000009
  0
ARC
  8
LC-003-002-----0
 62
     1
  6
CONTINUOUS
 10
157.602951
 20
262.232239
 40
1.500000
 50
0.000000
 51
90.000003
  0
ARC
  8
LC-003-002-----0
 62
     1
  6
CONTINUOUS
 10
157.602951
 20
217.232239
 40
1.500000
 50
269.999997
 51
0.000000
  0
ARC
  8
LC-003-002-----0
 62
     1
  6
CONTINUOUS
 10
100.602959
 20
217.232239
 40
1.500000
 50
180.000009
 51
269.999997
  0
LINE
  8
LC-003-002-----0
 62
     1
  6
CONTINUOUS
 10
99.102959
 20
228.232239
 11
99.102959
 21
217.232239
  0
LINE
  8
LC-003-002-----0
 62
     1
  6
CONTINUOUS
 10
159.102951
 20
228.232239
 11
159.102951
 21
217.232239
  0
LINE
  8
LC-004-006-----0
 62
     2
  6
DASHDOT
 10
95.102959
 20
267.342621
 11
95.102959
 21
256.604248
  0
LINE
  8
LC-004-006-----0
 62
     2
  6
DASHDOT
 10
90.139328
 20
262.232239
 11
100.739441
 21
262.232239
  0
CIRCLE
  8
LC-003-002-----0
 62
     1
  6
CONTINUOUS
 10
95.102959
 20
262.232239
 40
3.300000
  0
LINE
  8
LC-004-006-----0
 62
     2
  6
DASHDOT
 10
95.102959
 20
212.121857
 11
95.102959
 21
222.860229
  0
LINE
  8
LC-004-006-----0
 62
     2
  6
DASHDOT
 10
90.139328
 20
217.232239
 11
100.739441
 21
217.232239
  0
CIRCLE
  8
LC-003-002-----0
 62
     1
  6
CONTINUOUS
 10
95.102959
 20
217.232239
 40
3.300000
  0
LINE
  8
LC-004-006-----0
 62
     2
  6
DASHDOT
 10
163.102951
 20
267.342621
 11
163.102951
 21
256.604248
  0
LINE
  8
LC-004-006-----0
 62
     2
  6
DASHDOT
 10
168.066589
 20
262.232239
 11
157.466476
 21
262.232239
  0
CIRCLE
  8
LC-003-002-----0
 62
     1
  6
CONTINUOUS
 10
163.102951
 20
262.232239
 40
3.300000
  0
LINE
  8
LC-004-006-----0
 62
     2
  6
DASHDOT
 10
163.102951
 20
212.121857
 11
163.102951
 21
222.860229
  0
LINE
  8
LC-004-006-----0
 62
     2
  6
DASHDOT
 10
168.066589
 20
217.232239
 11
157.466476
 21
217.232239
  0
CIRCLE
  8
LC-003-002-----0
 62
     1
  6
CONTINUOUS
 10
163.102951
 20
217.232239
 40
3.300000
  0
LINE
  8
LC-003-002-----0
 62
     1
  6
CONTINUOUS
 10
102.632454
 20
213.882233
 11
102.632454
 21
215.732239
  0
LINE
  8
LC-003-002-----0
 62
     1
  6
CONTINUOUS
 10
127.852959
 20
213.882233
 11
127.852959
 21
215.732239
  0
LINE
  8
LC-003-002-----0
 62
     1
  6
CONTINUOUS
 10
107.102959
 20
273.732239
 11
151.102951
 21
273.732239
  0
LINE
  8
LC-003-002-----0
 62
     1
  6
CONTINUOUS
 10
107.102959
 20
205.732239
 11
151.102951
 21
205.732239
  0
ARC
  8
LC-003-002-----0
 62
     1
  6
CONTINUOUS
 10
107.102959
 20
207.232239
 40
1.500000
 50
180.000009
 51
269.999997
  0
ARC
  8
LC-003-002-----0
 62
     1
  6
CONTINUOUS
 10
151.102951
 20
207.232239
 40
1.500000
 50
269.999997
 51
0.000000
  0
ARC
  8
LC-003-002-----0
 62
     1
  6
CONTINUOUS
 10
151.102951
 20
272.232239
 40
1.500000
 50
0.000000
 51
90.000003
  0
ARC
  8
LC-003-002-----0
 62
     1
  6
CONTINUOUS
 10
107.102959
 20
272.232239
 40
1.500000
 50
90.000003
 51
180.000009
  0
LINE
  8
LC-006-012-----0
 62
     2
  6
DASHED
 10
105.602959
 20
269.732239
 11
152.602951
 21
269.732239
  0
LINE
  8
LC-003-002-----0
 62
     1
  6
CONTINUOUS
 10
152.602951
 20
269.732239
 11
169.602951
 21
269.732239
  0
LINE
  8
LC-006-012-----0
 62
     2
  6
DASHED
 10
105.602959
 20
209.732239
 11
152.602951
 21
209.732239
  0
LINE
  8
LC-003-002-----0
 62
     1
  6
CONTINUOUS
 10
152.602951
 20
209.732239
 11
169.602951
 21
209.732239
  0
LINE
  8
LC-003-002-----0
 62
     1
  6
CONTINUOUS
 10
102.632454
 20
265.582245
 11
102.632454
 21
263.732239
  0
LINE
  8
LC-003-002-----0
 62
     1
  6
CONTINUOUS
 10
127.852959
 20
265.582245
 11
127.852959
 21
263.732239
  0
LINE
  8
LC-003-002-----0
 62
     1
  6
CONTINUOUS
 10
130.352951
 20
265.582245
 11
130.352951
 21
263.732239
  0
LINE
  8
LC-003-002-----0
 62
     1
  6
CONTINUOUS
 10
155.573456
 20
265.582245
 11
155.573456
 21
263.732239
  0
LINE
  8
LC-003-002-----0
 62
     1
  6
CONTINUOUS
 10
102.632454
 20
265.582245
 11
155.573456
 21
265.582245
  0
LINE
  8
LC-003-002-----0
 62
     1
  6
CONTINUOUS
 10
105.602959
 20
272.232239
 11
105.602959
 21
265.582245
  0
LINE
  8
LC-006-012-----0
 62
     2
  6
DASHED
 10
105.602959
 20
265.582245
 11
105.602959
 21
213.882233
  0
LINE
  8
LC-003-002-----0
 62
     1
  6
CONTINUOUS
 10
152.602951
 20
272.232239
 11
152.602951
 21
265.582245
  0
LINE
  8
LC-006-012-----0
 62
     2
  6
DASHED
 10
152.602951
 20
265.582245
 11
152.602951
 21
213.882233
  0
LINE
  8
LC-003-002-----0
 62
     1
  6
CONTINUOUS
 10
130.352951
 20
213.882233
 11
130.352951
 21
215.732239
  0
LINE
  8
LC-003-002-----0
 62
     1
  6
CONTINUOUS
 10
155.573456
 20
213.882233
 11
155.573456
 21
215.732239
  0
LINE
  8
LC-003-002-----0
 62
     1
  6
CONTINUOUS
 10
102.632454
 20
213.882233
 11
155.573456
 21
213.882233
  0
LINE
  8
LC-003-002-----0
 62
     1
  6
CONTINUOUS
 10
105.602959
 20
213.882233
 11
105.602959
 21
207.232239
  0
LINE
  8
LC-003-002-----0
 62
     1
  6
CONTINUOUS
 10
152.602951
 20
213.882233
 11
152.602951
 21
207.232239
  0
LINE
  8
LC-003-002-----0
 62
     1
  6
CONTINUOUS
 10
114.102959
 20
288.168091
 11
114.102959
 21
273.732239
  0
LINE
  8
LC-003-002-----0
 62
     1
  6
CONTINUOUS
 10
144.102951
 20
288.577301
 11
144.102951
 21
273.732239
  0
LINE
  8
LC-001-150-----0
 62
     2
  6
CONTINUOUS
 10
114.102959
 20
288.168091
 11
122.689674
 21
287.932617
  0
LINE
  8
LC-001-150-----0
 62
     2
  6
CONTINUOUS
 10
122.689674
 20
287.932617
 11
137.947052
 21
289.488312
  0
LINE
  8
LC-001-150-----0
 62
     2
  6
CONTINUOUS
 10
137.947052
 20
289.488312
 11
144.102951
 21
288.577301
  0
LINE
  8
LC-001-150-----0
 62
     2
  6
CONTINUOUS
 10
114.102959
 20
191.676727
 11
121.987320
 21
190.742935
  0
LINE
  8
LC-001-150-----0
 62
     2
  6
CONTINUOUS
 10
121.987320
 20
190.742935
 11
137.536438
 21
191.883774
  0
LINE
  8
LC-001-150-----0
 62
     2
  6
CONTINUOUS
 10
137.536438
 20
191.883774
 11
144.102951
 21
191.583359
  0
LINE
  8
LC-003-002-----0
 62
     1
  6
CONTINUOUS
 10
114.102959
 20
205.732239
 11
114.102959
 21
191.676727
  0
LINE
  8
LC-003-002-----0
 62
     1
  6
CONTINUOUS
 10
144.102951
 20
205.732239
 11
144.102951
 21
191.583359
  0
LINE
  8
LC-006-012-----0
 62
     2
  6
DASHED
 10
144.102951
 20
273.732239
 11
144.102951
 21
205.732239
  0
LINE
  8
LC-006-012-----0
 62
     2
  6
DASHED
 10
114.102959
 20
273.732239
 11
114.102959
 21
205.732239
  0
ARC
  8
LC-003-002-----0
 62
     1
  6
CONTINUOUS
 10
97.602959
 20
251.232239
 40
1.500000
 50
269.999997
 51
0.000000
  0
ARC
  8
LC-003-002-----0
 62
     1
  6
CONTINUOUS
 10
97.602959
 20
228.232239
 40
1.500000
 50
0.000000
 51
90.000003
  0
ARC
  8
LC-003-002-----0
 62
     1
  6
CONTINUOUS
 10
160.602951
 20
228.232239
 40
1.500000
 50
90.000003
 51
180.000009
  0
ARC
  8
LC-003-002-----0
 62
     1
  6
CONTINUOUS
 10
160.602951
 20
251.232239
 40
1.500000
 50
180.000009
 51
269.999997
  0
LINE
  8
LC-003-002-----0
 62
     1
  6
CONTINUOUS
 10
107.608772
 20
248.232239
 11
107.608772
 21
231.232239
  0
ARC
  8
LC-003-002-----0
 62
     1
  6
CONTINUOUS
 10
109.108772
 20
248.232239
 40
1.500000
 50
90.000003
 51
180.000009
  0
ARC
  8
LC-003-002-----0
 62
     1
  6
CONTINUOUS
 10
109.108772
 20
231.232239
 40
1.500000
 50
180.000009
 51
269.999997
  0
LINE
  8
LC-004-006-----0
 62
     2
  6
DASHDOT
 10
100.424316
 20
411.287384
 11
100.424316
 21
381.325684
  0
LINE
  8
LC-003-002-----0
 62
     1
  6
CONTINUOUS
 10
90.902985
 20
393.925964
 11
109.888702
 21
393.925964
  0
LINE
  8
LC-003-002-----0
 62
     1
  6
CONTINUOUS
 10
90.728004
 20
391.925964
 11
108.170029
 21
391.925964
  0
LINE
  8
LC-006-012-----0
 62
     2
  6
DASHED
 10
109.888702
 20
393.925964
 11
112.877975
 21
393.925964
  0
LINE
  8
LC-006-012-----0
 62
     2
  6
DASHED
 10
108.170029
 20
391.925964
 11
111.012901
 21
391.925964
  0
LINE
  8
LC-003-002-----0
 62
     1
  6
CONTINUOUS
 10
90.902985
 20
393.925964
 11
91.745567
 21
403.556702
  0
LINE
  8
LC-003-002-----0
 62
     1
  6
CONTINUOUS
 10
103.424316
 20
393.925964
 11
103.424316
 21
391.925964
  0
LINE
  8
LC-003-002-----0
 62
     1
  6
CONTINUOUS
 10
97.424316
 20
393.925964
 11
97.424316
 21
391.925964
  0
LINE
  8
LC-001-150-----0
 62
     2
  6
CONTINUOUS
 10
102.924316
 20
393.925964
 11
102.924316
 21
391.925964
  0
LINE
  8
LC-001-150-----0
 62
     2
  6
CONTINUOUS
 10
97.924316
 20
393.925964
 11
97.924316
 21
391.925964
  0
LINE
  8
LC-003-002-----0
 62
     1
  6
CONTINUOUS
 10
258.793762
 20
408.525970
 11
258.793762
 21
405.425964
  0
ARC
  8
LC-003-002-----0
 62
     1
  6
CONTINUOUS
 10
260.237122
 20
406.121826
 40
2.804167
 50
59.020901
 51
120.979097
  0
LINE
  8
LC-003-002-----0
 62
     1
  6
CONTINUOUS
 10
261.680511
 20
408.525970
 11
261.680511
 21
405.425964
  0
ARC
  8
LC-003-002-----0
 62
     1
  6
CONTINUOUS
 10
264.567261
 20
398.309326
 40
10.616667
 50
74.222197
 51
105.777808
  0
LINE
  8
LC-003-002-----0
 62
     1
  6
CONTINUOUS
 10
267.454010
 20
408.525970
 11
267.454010
 21
405.425964
  0
LINE
  8
LC-003-002-----0
 62
     1
  6
CONTINUOUS
 10
270.340759
 20
408.525970
 11
270.340759
 21
405.425964
  0
ARC
  8
LC-003-002-----0
 62
     1
  6
CONTINUOUS
 10
268.897369
 20
406.121826
 40
2.804167
 50
59.020901
 51
120.979097
  0
LINE
  8
LC-003-002-----0
 62
     1
  6
CONTINUOUS
 10
268.897369
 20
408.925964
 11
260.237122
 21
408.925964
  0
LINE
  8
LC-003-002-----0
 62
     1
  6
CONTINUOUS
 10
270.340759
 20
405.425964
 11
258.793762
 21
405.425964
  0
LINE
  8
LC-003-002-----0
 62
     1
  6
CONTINUOUS
 10
269.683563
 20
405.425964
 11
269.683563
 21
404.925964
  0
LINE
  8
LC-003-002-----0
 62
     1
  6
CONTINUOUS
 10
259.450928
 20
405.425964
 11
259.450928
 21
404.925964
  0
LINE
  8
LC-003-002-----0
 62
     1
  6
CONTINUOUS
 10
269.683563
 20
404.925964
 11
259.450928
 21
404.925964
  0
LINE
  8
LC-003-002-----0
 62
     1
  6
CONTINUOUS
 10
240.567261
 20
393.925964
 11
288.567261
 21
393.925964
  0
LINE
  8
LC-003-002-----0
 62
     1
  6
CONTINUOUS
 10
240.567261
 20
391.925964
 11
288.567261
 21
391.925964
  0
LINE
  8
LC-003-002-----0
 62
     1
  6
CONTINUOUS
 10
261.567261
 20
393.925964
 11
261.567261
 21
391.925964
  0
LINE
  8
LC-001-150-----0
 62
     2
  6
CONTINUOUS
 10
262.067261
 20
393.925964
 11
262.067261
 21
391.925964
  0
LINE
  8
LC-003-002-----0
 62
     1
  6
CONTINUOUS
 10
254.567261
 20
393.925964
 11
254.567261
 21
410.425964
  0
LINE
  8
LC-003-002-----0
 62
     1
  6
CONTINUOUS
 10
267.567261
 20
393.925964
 11
267.567261
 21
391.925964
  0
LINE
  8
LC-001-150-----0
 62
     2
  6
CONTINUOUS
 10
267.067261
 20
393.925964
 11
267.067261
 21
391.925964
  0
LINE
  8
LC-003-002-----0
 62
     1
  6
CONTINUOUS
 10
274.567261
 20
393.925964
 11
274.567261
 21
410.425964
  0
LINE
  8
LC-004-006-----0
 62
     2
  6
DASHDOT
 10
100.424316
 20
248.454086
 11
100.424316
 21
231.489227
  0
LINE
  8
LC-003-002-----0
 62
     1
  6
CONTINUOUS
 10
94.650810
 20
408.525970
 11
94.650810
 21
405.425964
  0
ARC
  8
LC-003-002-----0
 62
     1
  6
CONTINUOUS
 10
96.094193
 20
406.121826
 40
2.804167
 50
59.020901
 51
120.979097
  0
LINE
  8
LC-003-002-----0
 62
     1
  6
CONTINUOUS
 10
97.537567
 20
408.525970
 11
97.537567
 21
405.425964
  0
ARC
  8
LC-003-002-----0
 62
     1
  6
CONTINUOUS
 10
100.424316
 20
398.309326
 40
10.616667
 50
74.222197
 51
105.777808
  0
LINE
  8
LC-003-002-----0
 62
     1
  6
CONTINUOUS
 10
103.311066
 20
408.525970
 11
103.311066
 21
405.425964
  0
LINE
  8
LC-003-002-----0
 62
     1
  6
CONTINUOUS
 10
106.197815
 20
408.525970
 11
106.197815
 21
405.425964
  0
ARC
  8
LC-003-002-----0
 62
     1
  6
CONTINUOUS
 10
104.754440
 20
406.121826
 40
2.804167
 50
59.020901
 51
120.979097
  0
LINE
  8
LC-003-002-----0
 62
     1
  6
CONTINUOUS
 10
104.754440
 20
408.925964
 11
96.094193
 21
408.925964
  0
LINE
  8
LC-003-002-----0
 62
     1
  6
CONTINUOUS
 10
106.197815
 20
405.425964
 11
94.650810
 21
405.425964
  0
LINE
  8
LC-003-002-----0
 62
     1
  6
CONTINUOUS
 10
105.540634
 20
405.425964
 11
105.540634
 21
404.925964
  0
LINE
  8
LC-003-002-----0
 62
     1
  6
CONTINUOUS
 10
95.307999
 20
405.425964
 11
95.307999
 21
404.925964
  0
LINE
  8
LC-003-002-----0
 62
     1
  6
CONTINUOUS
 10
105.540634
 20
404.925964
 11
95.307999
 21
404.925964
  0
LINE
  8
LC-003-002-----0
 62
     1
  6
CONTINUOUS
 10
103.311066
 20
244.732239
 11
106.197815
 21
239.732239
  0
LINE
  8
LC-003-002-----0
 62
     1
  6
CONTINUOUS
 10
94.650810
 20
239.732239
 11
97.537560
 21
234.732239
  0
LINE
  8
LC-003-002-----0
 62
     1
  6
CONTINUOUS
 10
97.537560
 20
244.732239
 11
103.311066
 21
244.732239
  0
LINE
  8
LC-003-002-----0
 62
     1
  6
CONTINUOUS
 10
97.537560
 20
234.732239
 11
103.311066
 21
234.732239
  0
LINE
  8
LC-003-002-----0
 62
     1
  6
CONTINUOUS
 10
94.650810
 20
239.732239
 11
97.537560
 21
244.732239
  0
LINE
  8
LC-003-002-----0
 62
     1
  6
CONTINUOUS
 10
103.311066
 20
234.732239
 11
106.197815
 21
239.732239
  0
CIRCLE
  8
LC-003-002-----0
 62
     1
  6
CONTINUOUS
 10
100.424316
 20
239.732239
 40
5.000000
  0
ARC
  8
LC-003-002-----0
 62
     1
  6
CONTINUOUS
 10
129.102951
 20
376.925964
 40
30.000000
 50
149.999997
 51
145.481896
  0
ENDSEC
  0
EOF
