  0
SECTION
  2
HEADER
  9
$LIMMIN
 10
85.076683
 20
-101.604240
  9
$LIMMAX
 10
345.409821
 20
150.797531
  9
$EXTMIN
 10
85.076683
 20
-101.604240
  9
$EXTMAX
 10
345.409821
 20
150.797531
  0
ENDSEC
  0
SECTION
  2
TABLES
  0
TABLE
  2
LTYPE
 70
     3
  0
LTYPE
  2
CONTINUOUS
 70
    64
  3
Ausgezogene Linie
 72
    65
 73
     0
 40
0.0
  0
LTYPE
  2
DASHED
 70
    64
  3
__ __ __ __ __ __ __ __ __ __ __ __ __ __ __
 72
    65
 73
     2
 40
0.75
 49
0.5
 49
-0.25
  0
LTYPE
  2
DASHDOT
 70
    64
  3
__ . __ . __ . __ . __ . __ . __ . __ . __ . __
 72
    65
 73
     4
 40
1.0
 49
0.5
 49
-0.25
 49
0.0
 49
-0.25
  0
ENDTAB
  0
TABLE
  2
LAYER
 70
     4
  0
LAYER
  2
LC-003-002-----0
 70
    64
 62
     7
  6
CONTINUOUS
  0
LAYER
  2
LC-004-006-----0
 70
    64
 62
     7
  6
CONTINUOUS
  0
LAYER
  2
LC-006-012-----0
 70
    64
 62
     7
  6
CONTINUOUS
  0
LAYER
  2
LC-001-150-----0
 70
    64
 62
     7
  6
CONTINUOUS
  0
ENDTAB
  0
TABLE
  2
STYLE
 70
     1
  0
STYLE
  2
TXT8
 70
    64
 40
0.0
 41
1.0
 50
0.0
 71
     0
 42
3.500000
  3
TXT8
  4

  0
ENDTAB
  0
ENDSEC
  0
SECTION
  2
BLOCKS
  0
ENDSEC
  0
SECTION
  2
ENTITIES
  0
LINE
  8
LC-003-002-----0
 62
     1
  6
CONTINUOUS
 10
92.102959
 20
66.785706
 11
92.102959
 21
56.785706
  0
LINE
  8
LC-003-002-----0
 62
     1
  6
CONTINUOUS
 10
92.102959
 20
56.785706
 11
200.102951
 21
56.785706
  0
LINE
  8
LC-003-002-----0
 62
     1
  6
CONTINUOUS
 10
94.102959
 20
68.785706
 11
116.303627
 21
68.785706
  0
ARC
  8
LC-003-002-----0
 62
     1
  6
CONTINUOUS
 10
146.102951
 20
101.785706
 40
45.000000
 50
12.741697
 51
123.923114
  0
LINE
  8
LC-004-006-----0
 62
     2
  6
DASHDOT
 10
101.100304
 20
101.785706
 11
189.742432
 21
101.785706
  0
LINE
  8
LC-003-002-----0
 62
     1
  6
CONTINUOUS
 10
200.102951
 20
66.785706
 11
200.102951
 21
56.785706
  0
ARC
  8
LC-003-002-----0
 62
     1
  6
CONTINUOUS
 10
94.102959
 20
66.785706
 40
2.000000
 50
90.000003
 51
180.000009
  0
ARC
  8
LC-003-002-----0
 62
     1
  6
CONTINUOUS
 10
198.102951
 20
66.785706
 40
2.000000
 50
0.000000
 51
90.000003
  0
LINE
  8
LC-004-006-----0
 62
     2
  6
DASHDOT
 10
146.102951
 20
52.059929
 11
146.102951
 21
150.797531
  0
CIRCLE
  8
LC-003-002-----0
 62
     1
  6
CONTINUOUS
 10
146.102951
 20
101.785706
 40
20.000000
  0
CIRCLE
  8
LC-003-002-----0
 62
     1
  6
CONTINUOUS
 10
146.102951
 20
101.785706
 40
31.000000
  0
CIRCLE
  8
LC-003-002-----0
 62
     1
  6
CONTINUOUS
 10
146.102951
 20
101.785706
 40
28.000000
  0
LINE
  8
LC-003-002-----0
 62
     1
  6
CONTINUOUS
 10
251.954376
 20
141.617004
 11
254.104370
 21
141.617004
  0
LINE
  8
LC-003-002-----0
 62
     1
  6
CONTINUOUS
 10
200.053711
 20
67.226822
 11
189.994797
 21
111.710732
  0
LINE
  8
LC-003-002-----0
 62
     1
  6
CONTINUOUS
 10
92.110565
 20
66.960014
 11
96.907196
 21
121.785706
  0
LINE
  8
LC-003-002-----0
 62
     1
  6
CONTINUOUS
 10
100.227165
 20
138.785706
 11
119.873199
 21
138.785706
  0
ARC
  8
LC-003-002-----0
 62
     1
  6
CONTINUOUS
 10
100.227165
 20
136.785706
 40
2.000000
 50
90.000003
 51
175.000006
  0
ARC
  8
LC-003-002-----0
 62
     1
  6
CONTINUOUS
 10
119.873199
 20
140.785706
 40
2.000000
 50
269.999997
 51
303.923112
  0
LINE
  8
LC-004-006-----0
 62
     2
  6
DASHDOT
 10
189.102951
 20
52.059929
 11
189.102951
 21
73.754059
  0
LINE
  8
LC-006-012-----0
 62
     2
  6
DASHED
 10
193.602951
 20
56.785706
 11
193.602951
 21
68.785706
  0
LINE
  8
LC-006-012-----0
 62
     2
  6
DASHED
 10
184.602951
 20
56.785706
 11
184.602951
 21
68.785706
  0
LINE
  8
LC-004-006-----0
 62
     2
  6
DASHDOT
 10
103.102959
 20
52.059929
 11
103.102959
 21
73.754059
  0
LINE
  8
LC-006-012-----0
 62
     2
  6
DASHED
 10
98.602959
 20
56.785706
 11
98.602959
 21
68.785706
  0
LINE
  8
LC-006-012-----0
 62
     2
  6
DASHED
 10
107.602959
 20
56.785706
 11
107.602959
 21
68.785706
  0
ARC
  8
LC-003-002-----0
 62
     1
  6
CONTINUOUS
 10
146.102951
 20
101.785706
 40
41.000000
 50
150.803596
 51
147.548506
  0
ARC
  8
LC-003-002-----0
 62
     1
  6
CONTINUOUS
 10
116.303627
 20
70.785706
 40
2.000000
 50
269.999997
 51
46.131337
  0
ARC
  8
LC-003-002-----0
 62
     1
  6
CONTINUOUS
 10
175.902283
 20
70.785706
 40
2.000000
 50
133.868661
 51
269.999997
  0
LINE
  8
LC-003-002-----0
 62
     1
  6
CONTINUOUS
 10
175.902283
 20
68.785706
 11
198.102951
 21
68.785706
  0
LINE
  8
LC-003-002-----0
 62
     1
  6
CONTINUOUS
 10
243.104370
 20
56.785706
 11
321.104370
 21
56.785706
  0
LINE
  8
LC-003-002-----0
 62
     1
  6
CONTINUOUS
 10
321.104370
 20
56.785706
 11
321.104370
 21
66.785706
  0
LINE
  8
LC-003-002-----0
 62
     1
  6
CONTINUOUS
 10
245.104370
 20
68.785706
 11
319.104370
 21
68.785706
  0
LINE
  8
LC-003-002-----0
 62
     1
  6
CONTINUOUS
 10
243.104370
 20
56.785706
 11
243.104370
 21
66.785706
  0
LINE
  8
LC-004-006-----0
 62
     2
  6
DASHDOT
 10
282.104370
 20
52.059929
 11
282.104370
 21
150.797531
  0
ARC
  8
LC-003-002-----0
 62
     1
  6
CONTINUOUS
 10
245.104370
 20
66.785706
 40
2.000000
 50
90.000003
 51
180.000009
  0
ARC
  8
LC-003-002-----0
 62
     1
  6
CONTINUOUS
 10
319.104370
 20
66.785706
 40
2.000000
 50
0.000000
 51
90.000003
  0
LINE
  8
LC-003-002-----0
 62
     1
  6
CONTINUOUS
 10
256.104370
 20
142.785706
 11
267.604370
 21
142.785706
  0
LINE
  8
LC-003-002-----0
 62
     1
  6
CONTINUOUS
 10
310.104370
 20
70.785706
 11
310.104370
 21
140.785706
  0
LINE
  8
LC-003-002-----0
 62
     1
  6
CONTINUOUS
 10
254.104370
 20
70.785706
 11
254.104370
 21
140.785706
  0
ARC
  8
LC-003-002-----0
 62
     1
  6
CONTINUOUS
 10
256.104370
 20
140.785706
 40
2.000000
 50
90.000003
 51
180.000009
  0
ARC
  8
LC-003-002-----0
 62
     1
  6
CONTINUOUS
 10
308.104370
 20
140.785706
 40
2.000000
 50
0.000000
 51
90.000003
  0
ARC
  8
LC-003-002-----0
 62
     1
  6
CONTINUOUS
 10
312.104370
 20
70.785706
 40
2.000000
 50
180.000009
 51
269.999997
  0
ARC
  8
LC-003-002-----0
 62
     1
  6
CONTINUOUS
 10
252.104370
 20
70.785706
 40
2.000000
 50
269.999997
 51
0.000000
  0
LINE
  8
LC-003-002-----0
 62
     1
  6
CONTINUOUS
 10
271.104370
 20
146.785706
 11
293.104370
 21
146.785706
  0
LINE
  8
LC-003-002-----0
 62
     1
  6
CONTINUOUS
 10
295.104370
 20
70.785706
 11
295.104370
 21
121.785706
  0
LINE
  8
LC-003-002-----0
 62
     1
  6
CONTINUOUS
 10
269.104370
 20
70.785706
 11
269.104370
 21
121.785706
  0
ARC
  8
LC-003-002-----0
 62
     1
  6
CONTINUOUS
 10
271.104370
 20
144.785706
 40
2.000000
 50
90.000003
 51
180.000009
  0
ARC
  8
LC-003-002-----0
 62
     1
  6
CONTINUOUS
 10
293.104370
 20
144.785706
 40
2.000000
 50
0.000000
 51
90.000003
  0
ARC
  8
LC-003-002-----0
 62
     1
  6
CONTINUOUS
 10
267.104370
 20
70.785706
 40
2.000000
 50
269.999997
 51
0.000000
  0
ARC
  8
LC-003-002-----0
 62
     1
  6
CONTINUOUS
 10
297.104370
 20
70.785706
 40
2.000000
 50
180.000009
 51
269.999997
  0
LINE
  8
LC-003-002-----0
 62
     1
  6
CONTINUOUS
 10
296.604370
 20
142.785706
 11
308.104370
 21
142.785706
  0
LINE
  8
LC-003-002-----0
 62
     1
  6
CONTINUOUS
 10
271.104370
 20
138.785706
 11
293.104370
 21
138.785706
  0
ARC
  8
LC-003-002-----0
 62
     1
  6
CONTINUOUS
 10
146.102951
 20
99.977371
 40
34.978333
 50
114.896158
 51
65.103847
  0
ARC
  8
LC-003-002-----0
 62
     1
  6
CONTINUOUS
 10
271.104370
 20
136.785706
 40
2.000000
 50
90.000003
 51
180.000009
  0
ARC
  8
LC-003-002-----0
 62
     1
  6
CONTINUOUS
 10
293.104370
 20
136.785706
 40
2.000000
 50
0.000000
 51
90.000003
  0
ARC
  8
LC-003-002-----0
 62
     1
  6
CONTINUOUS
 10
267.604370
 20
144.285706
 40
1.500000
 50
269.999997
 51
0.000000
  0
ARC
  8
LC-003-002-----0
 62
     1
  6
CONTINUOUS
 10
296.604370
 20
144.285706
 40
1.500000
 50
180.000009
 51
269.999997
  0
LINE
  8
LC-003-002-----0
 62
     1
  6
CONTINUOUS
 10
251.954376
 20
131.705246
 11
254.104370
 21
131.705246
  0
LINE
  8
LC-003-002-----0
 62
     1
  6
CONTINUOUS
 10
251.954376
 20
68.785706
 11
251.954376
 21
141.617004
  0
LINE
  8
LC-003-002-----0
 62
     1
  6
CONTINUOUS
 10
254.104370
 20
140.785706
 11
254.104370
 21
141.617004
  0
LINE
  8
LC-003-002-----0
 62
     1
  6
CONTINUOUS
 10
92.102959
 20
-7.145902
 11
92.102959
 21
-81.145905
  0
LINE
  8
LC-003-002-----0
 62
     1
  6
CONTINUOUS
 10
160.827957
 20
131.705246
 11
159.194824
 21
136.827316
  0
LINE
  8
LC-003-002-----0
 62
     1
  6
CONTINUOUS
 10
155.163513
 20
140.347031
 11
147.911285
 21
141.617004
  0
LINE
  8
LC-003-002-----0
 62
     1
  6
CONTINUOUS
 10
147.911285
 20
132.732925
 11
147.911285
 21
141.617004
  0
LINE
  8
LC-003-002-----0
 62
     1
  6
CONTINUOUS
 10
144.294617
 20
132.732925
 11
144.294617
 21
141.617004
  0
LINE
  8
LC-003-002-----0
 62
     1
  6
CONTINUOUS
 10
144.294617
 20
141.617004
 11
137.042404
 21
140.347031
  0
LINE
  8
LC-003-002-----0
 62
     1
  6
CONTINUOUS
 10
131.377960
 20
131.705246
 11
133.011078
 21
136.827316
  0
CIRCLE
  8
LC-003-002-----0
 62
     1
  6
CONTINUOUS
 10
140.161285
 20
136.450333
 40
2.066667
  0
LINE
  8
LC-003-002-----0
 62
     1
  6
CONTINUOUS
 10
312.254364
 20
141.617004
 11
310.104370
 21
141.617004
  0
CIRCLE
  8
LC-003-002-----0
 62
     1
  6
CONTINUOUS
 10
152.044617
 20
136.450333
 40
2.066667
  0
ARC
  8
LC-003-002-----0
 62
     1
  6
CONTINUOUS
 10
154.272324
 20
135.257813
 40
5.166667
 50
17.684461
 51
80.067439
  0
ARC
  8
LC-003-002-----0
 62
     1
  6
CONTINUOUS
 10
137.933594
 20
135.257813
 40
5.166667
 50
99.932559
 51
162.315539
  0
LINE
  8
LC-003-002-----0
 62
     1
  6
CONTINUOUS
 10
312.254364
 20
131.705246
 11
310.104370
 21
131.705246
  0
LINE
  8
LC-003-002-----0
 62
     1
  6
CONTINUOUS
 10
312.254364
 20
68.785706
 11
312.254364
 21
141.617004
  0
LINE
  8
LC-003-002-----0
 62
     1
  6
CONTINUOUS
 10
310.104370
 20
140.785706
 11
310.104370
 21
141.617004
  0
LINE
  8
LC-003-002-----0
 62
     1
  6
CONTINUOUS
 10
94.102959
 20
-83.145905
 11
115.188744
 21
-83.145905
  0
LINE
  8
LC-004-006-----0
 62
     2
  6
DASHDOT
 10
253.104370
 20
52.059929
 11
253.104370
 21
73.754059
  0
LINE
  8
LC-004-006-----0
 62
     2
  6
DASHDOT
 10
311.104370
 20
52.059929
 11
311.104370
 21
73.754059
  0
LINE
  8
LC-006-012-----0
 62
     2
  6
DASHED
 10
315.604370
 20
56.785706
 11
315.604370
 21
68.785706
  0
LINE
  8
LC-006-012-----0
 62
     2
  6
DASHED
 10
306.604370
 20
56.785706
 11
306.604370
 21
68.785706
  0
LINE
  8
LC-003-002-----0
 62
     1
  6
CONTINUOUS
 10
243.604370
 20
132.785706
 11
251.954376
 21
132.785706
  0
LINE
  8
LC-006-012-----0
 62
     2
  6
DASHED
 10
248.604370
 20
56.785706
 11
248.604370
 21
68.785706
  0
LINE
  8
LC-006-012-----0
 62
     2
  6
DASHED
 10
257.604370
 20
56.785706
 11
257.604370
 21
68.785706
  0
LINE
  8
LC-003-002-----0
 62
     1
  6
CONTINUOUS
 10
243.604370
 20
70.785706
 11
251.954376
 21
70.785706
  0
LINE
  8
LC-003-002-----0
 62
     1
  6
CONTINUOUS
 10
322.104370
 20
72.285706
 11
322.104370
 21
131.285706
  0
LINE
  8
LC-003-002-----0
 62
     1
  6
CONTINUOUS
 10
242.104370
 20
72.285706
 11
242.104370
 21
131.285706
  0
ARC
  8
LC-003-002-----0
 62
     1
  6
CONTINUOUS
 10
243.604370
 20
131.285706
 40
1.500000
 50
90.000003
 51
180.000009
  0
ARC
  8
LC-003-002-----0
 62
     1
  6
CONTINUOUS
 10
243.604370
 20
72.285706
 40
1.500000
 50
180.000009
 51
269.999997
  0
ARC
  8
LC-003-002-----0
 62
     1
  6
CONTINUOUS
 10
320.604370
 20
72.285706
 40
1.500000
 50
269.999997
 51
0.000000
  0
ARC
  8
LC-003-002-----0
 62
     1
  6
CONTINUOUS
 10
320.604370
 20
131.285706
 40
1.500000
 50
0.000000
 51
90.000003
  0
LINE
  8
LC-003-002-----0
 62
     1
  6
CONTINUOUS
 10
200.102951
 20
-7.145902
 11
200.102951
 21
-81.145905
  0
LINE
  8
LC-006-012-----0
 62
     2
  6
DASHED
 10
251.954376
 20
132.785706
 11
312.254364
 21
132.785706
  0
LINE
  8
LC-006-012-----0
 62
     2
  6
DASHED
 10
251.954376
 20
70.785706
 11
312.254364
 21
70.785706
  0
LINE
  8
LC-003-002-----0
 62
     1
  6
CONTINUOUS
 10
312.254364
 20
70.785706
 11
320.604370
 21
70.785706
  0
LINE
  8
LC-003-002-----0
 62
     1
  6
CONTINUOUS
 10
312.254364
 20
132.785706
 11
320.604370
 21
132.785706
  0
LINE
  8
LC-004-006-----0
 62
     2
  6
DASHDOT
 10
221.515335
 20
101.785706
 11
345.409821
 21
101.785706
  0
LINE
  8
LC-003-002-----0
 62
     1
  6
CONTINUOUS
 10
227.787964
 20
121.785706
 11
242.104370
 21
121.785706
  0
LINE
  8
LC-001-150-----0
 62
     2
  6
CONTINUOUS
 10
339.365509
 20
81.785706
 11
341.338257
 21
91.870026
  0
LINE
  8
LC-001-150-----0
 62
     2
  6
CONTINUOUS
 10
341.338257
 20
91.870026
 11
339.748077
 21
108.153114
  0
LINE
  8
LC-001-150-----0
 62
     2
  6
CONTINUOUS
 10
339.748077
 20
108.153114
 11
341.088684
 21
121.785706
  0
LINE
  8
LC-001-150-----0
 62
     2
  6
CONTINUOUS
 10
224.595688
 20
81.785706
 11
226.949905
 21
93.379532
  0
LINE
  8
LC-001-150-----0
 62
     2
  6
CONTINUOUS
 10
226.949905
 20
93.379532
 11
226.041229
 21
112.353172
  0
LINE
  8
LC-001-150-----0
 62
     2
  6
CONTINUOUS
 10
226.041229
 20
112.353172
 11
227.787964
 21
121.785706
  0
LINE
  8
LC-006-012-----0
 62
     2
  6
DASHED
 10
242.104370
 20
121.785706
 11
322.104370
 21
121.785706
  0
LINE
  8
LC-003-002-----0
 62
     1
  6
CONTINUOUS
 10
224.595688
 20
81.785706
 11
242.104370
 21
81.785706
  0
LINE
  8
LC-006-012-----0
 62
     2
  6
DASHED
 10
242.104370
 20
81.785706
 11
322.104370
 21
81.785706
  0
LINE
  8
LC-003-002-----0
 62
     1
  6
CONTINUOUS
 10
322.104370
 20
121.785706
 11
341.088684
 21
121.785706
  0
LINE
  8
LC-003-002-----0
 62
     1
  6
CONTINUOUS
 10
322.104370
 20
81.785706
 11
339.365509
 21
81.785706
  0
LINE
  8
LC-003-002-----0
 62
     1
  6
CONTINUOUS
 10
94.102959
 20
-5.145902
 11
115.188744
 21
-5.145902
  0
LINE
  8
LC-004-006-----0
 62
     2
  6
DASHDOT
 10
85.076683
 20
-44.145901
 11
206.225433
 21
-44.145901
  0
ARC
  8
LC-003-002-----0
 62
     1
  6
CONTINUOUS
 10
94.102959
 20
-7.145902
 40
2.000000
 50
90.000003
 51
180.000009
  0
ARC
  8
LC-003-002-----0
 62
     1
  6
CONTINUOUS
 10
94.102959
 20
-81.145905
 40
2.000000
 50
180.000009
 51
269.999997
  0
ARC
  8
LC-003-002-----0
 62
     1
  6
CONTINUOUS
 10
198.102951
 20
-81.145905
 40
2.000000
 50
269.999997
 51
0.000000
  0
ARC
  8
LC-003-002-----0
 62
     1
  6
CONTINUOUS
 10
198.102951
 20
-7.145902
 40
2.000000
 50
0.000000
 51
90.000003
  0
LINE
  8
LC-003-002-----0
 62
     1
  6
CONTINUOUS
 10
92.102959
 20
-31.145903
 11
200.102951
 21
-31.145903
  0
LINE
  8
LC-003-002-----0
 62
     1
  6
CONTINUOUS
 10
92.102959
 20
-57.145901
 11
200.102951
 21
-57.145901
  0
LINE
  8
LC-003-002-----0
 62
     1
  6
CONTINUOUS
 10
98.234772
 20
-33.145901
 11
98.234772
 21
-55.145901
  0
ARC
  8
LC-003-002-----0
 62
     1
  6
CONTINUOUS
 10
100.234772
 20
-55.145901
 40
2.000000
 50
180.000009
 51
269.999997
  0
ARC
  8
LC-003-002-----0
 62
     1
  6
CONTINUOUS
 10
100.234772
 20
-33.145901
 40
2.000000
 50
90.000003
 51
180.000009
  0
LINE
  8
LC-004-006-----0
 62
     2
  6
DASHDOT
 10
96.342468
 20
-15.145902
 11
110.150841
 21
-15.145902
  0
LINE
  8
LC-004-006-----0
 62
     2
  6
DASHDOT
 10
103.102959
 20
-8.953773
 11
103.102959
 21
-21.916910
  0
ARC
  8
LC-003-002-----0
 62
     1
  6
CONTINUOUS
 10
103.102959
 20
-15.145902
 40
4.500000
 50
347.160412
 51
296.387798
  0
LINE
  8
LC-004-006-----0
 62
     2
  6
DASHDOT
 10
96.342468
 20
-73.145905
 11
110.150841
 21
-73.145905
  0
LINE
  8
LC-004-006-----0
 62
     2
  6
DASHDOT
 10
103.102959
 20
-79.338028
 11
103.102959
 21
-66.374893
  0
ARC
  8
LC-003-002-----0
 62
     1
  6
CONTINUOUS
 10
103.102959
 20
-73.145905
 40
4.500000
 50
63.612202
 51
12.839588
  0
LINE
  8
LC-004-006-----0
 62
     2
  6
DASHDOT
 10
195.863449
 20
-15.145902
 11
182.055069
 21
-15.145902
  0
LINE
  8
LC-004-006-----0
 62
     2
  6
DASHDOT
 10
189.102951
 20
-8.953773
 11
189.102951
 21
-21.916910
  0
ARC
  8
LC-003-002-----0
 62
     1
  6
CONTINUOUS
 10
189.102951
 20
-15.145902
 40
4.500000
 50
243.612197
 51
192.839589
  0
LINE
  8
LC-004-006-----0
 62
     2
  6
DASHDOT
 10
195.863449
 20
-73.145905
 11
182.055069
 21
-73.145905
  0
LINE
  8
LC-004-006-----0
 62
     2
  6
DASHDOT
 10
189.102951
 20
-79.338028
 11
189.102951
 21
-66.374893
  0
ARC
  8
LC-003-002-----0
 62
     1
  6
CONTINUOUS
 10
189.102951
 20
-73.145905
 40
4.500000
 50
167.160411
 51
116.387803
  0
LINE
  8
LC-003-002-----0
 62
     1
  6
CONTINUOUS
 10
105.102959
 20
-18.145903
 11
105.102959
 21
-29.145903
  0
LINE
  8
LC-003-002-----0
 62
     1
  6
CONTINUOUS
 10
187.102951
 20
-18.145903
 11
187.102951
 21
-29.145903
  0
LINE
  8
LC-003-002-----0
 62
     1
  6
CONTINUOUS
 10
107.102959
 20
-16.145903
 11
185.102951
 21
-16.145903
  0
LINE
  8
LC-003-002-----0
 62
     1
  6
CONTINUOUS
 10
107.102959
 20
-72.145905
 11
185.102951
 21
-72.145905
  0
ARC
  8
LC-003-002-----0
 62
     1
  6
CONTINUOUS
 10
107.102959
 20
-18.145903
 40
2.000000
 50
90.000003
 51
180.000009
  0
ARC
  8
LC-003-002-----0
 62
     1
  6
CONTINUOUS
 10
107.102959
 20
-70.145905
 40
2.000000
 50
180.000009
 51
269.999997
  0
ARC
  8
LC-003-002-----0
 62
     1
  6
CONTINUOUS
 10
185.102951
 20
-70.145905
 40
2.000000
 50
269.999997
 51
0.000000
  0
ARC
  8
LC-003-002-----0
 62
     1
  6
CONTINUOUS
 10
185.102951
 20
-18.145903
 40
2.000000
 50
0.000000
 51
90.000003
  0
LINE
  8
LC-003-002-----0
 62
     1
  6
CONTINUOUS
 10
105.102959
 20
-59.145901
 11
105.102959
 21
-70.145905
  0
LINE
  8
LC-003-002-----0
 62
     1
  6
CONTINUOUS
 10
187.102951
 20
-59.145901
 11
187.102951
 21
-70.145905
  0
ARC
  8
LC-006-012-----0
 62
     2
  6
DASHED
 10
103.102959
 20
-15.145902
 40
4.500000
 50
296.387798
 51
347.160412
  0
ARC
  8
LC-006-012-----0
 62
     2
  6
DASHED
 10
103.102959
 20
-73.145905
 40
4.500000
 50
12.839588
 51
63.612202
  0
ARC
  8
LC-006-012-----0
 62
     2
  6
DASHED
 10
189.102951
 20
-15.145902
 40
4.500000
 50
192.839589
 51
243.612197
  0
ARC
  8
LC-006-012-----0
 62
     2
  6
DASHED
 10
189.102951
 20
-73.145905
 40
4.500000
 50
116.387803
 51
167.160411
  0
ARC
  8
LC-003-002-----0
 62
     1
  6
CONTINUOUS
 10
103.102959
 20
-29.145903
 40
2.000000
 50
269.999997
 51
0.000000
  0
ARC
  8
LC-003-002-----0
 62
     1
  6
CONTINUOUS
 10
103.102959
 20
-59.145901
 40
2.000000
 50
0.000000
 51
90.000003
  0
ARC
  8
LC-003-002-----0
 62
     1
  6
CONTINUOUS
 10
189.102951
 20
-29.145903
 40
2.000000
 50
180.000009
 51
269.999997
  0
ARC
  8
LC-003-002-----0
 62
     1
  6
CONTINUOUS
 10
189.102951
 20
-59.145901
 40
2.000000
 50
90.000003
 51
180.000009
  0
LINE
  8
LC-003-002-----0
 62
     1
  6
CONTINUOUS
 10
111.171402
 20
-13.995902
 11
111.171402
 21
-16.145903
  0
LINE
  8
LC-003-002-----0
 62
     1
  6
CONTINUOUS
 10
144.294617
 20
-13.995902
 11
144.294617
 21
-16.145903
  0
LINE
  8
LC-003-002-----0
 62
     1
  6
CONTINUOUS
 10
147.911285
 20
-13.995902
 11
147.911285
 21
-16.145903
  0
LINE
  8
LC-003-002-----0
 62
     1
  6
CONTINUOUS
 10
181.034515
 20
-13.995902
 11
181.034515
 21
-16.145903
  0
LINE
  8
LC-003-002-----0
 62
     1
  6
CONTINUOUS
 10
111.171402
 20
-13.995902
 11
181.034515
 21
-13.995902
  0
LINE
  8
LC-003-002-----0
 62
     1
  6
CONTINUOUS
 10
111.171402
 20
-74.295898
 11
111.171402
 21
-72.145905
  0
LINE
  8
LC-003-002-----0
 62
     1
  6
CONTINUOUS
 10
144.294617
 20
-74.295898
 11
144.294617
 21
-72.145905
  0
LINE
  8
LC-003-002-----0
 62
     1
  6
CONTINUOUS
 10
147.911285
 20
-74.295898
 11
147.911285
 21
-72.145905
  0
LINE
  8
LC-003-002-----0
 62
     1
  6
CONTINUOUS
 10
181.034515
 20
-74.295898
 11
181.034515
 21
-72.145905
  0
LINE
  8
LC-003-002-----0
 62
     1
  6
CONTINUOUS
 10
111.171402
 20
-74.295898
 11
181.034515
 21
-74.295898
  0
LINE
  8
LC-003-002-----0
 62
     1
  6
CONTINUOUS
 10
166.102951
 20
9.325546
 11
166.102951
 21
-4.145903
  0
LINE
  8
LC-003-002-----0
 62
     1
  6
CONTINUOUS
 10
115.102959
 20
-5.645902
 11
115.102959
 21
-13.995902
  0
LINE
  8
LC-003-002-----0
 62
     1
  6
CONTINUOUS
 10
177.102951
 20
-5.645902
 11
177.102951
 21
-13.995902
  0
LINE
  8
LC-001-150-----0
 62
     2
  6
CONTINUOUS
 10
126.102959
 20
-96.904999
 11
136.130554
 21
-98.210846
  0
LINE
  8
LC-003-002-----0
 62
     1
  6
CONTINUOUS
 10
116.602959
 20
-4.145902
 11
175.602951
 21
-4.145902
  0
LINE
  8
LC-003-002-----0
 62
     1
  6
CONTINUOUS
 10
116.602959
 20
-84.145905
 11
175.602951
 21
-84.145905
  0
ARC
  8
LC-003-002-----0
 62
     1
  6
CONTINUOUS
 10
116.602959
 20
-5.645902
 40
1.500000
 50
90.000003
 51
180.000009
  0
ARC
  8
LC-003-002-----0
 62
     1
  6
CONTINUOUS
 10
175.602951
 20
-5.645902
 40
1.500000
 50
0.000000
 51
90.000003
  0
ARC
  8
LC-003-002-----0
 62
     1
  6
CONTINUOUS
 10
175.602951
 20
-82.645905
 40
1.500000
 50
269.999997
 51
0.000000
  0
ARC
  8
LC-003-002-----0
 62
     1
  6
CONTINUOUS
 10
116.602959
 20
-82.645905
 40
1.500000
 50
180.000009
 51
269.999997
  0
LINE
  8
LC-003-002-----0
 62
     1
  6
CONTINUOUS
 10
115.102959
 20
-74.295898
 11
115.102959
 21
-82.645905
  0
LINE
  8
LC-006-012-----0
 62
     2
  6
DASHED
 10
115.188744
 20
-83.145905
 11
177.017166
 21
-83.145905
  0
LINE
  8
LC-003-002-----0
 62
     1
  6
CONTINUOUS
 10
177.017166
 20
-83.145905
 11
198.102951
 21
-83.145905
  0
LINE
  8
LC-006-012-----0
 62
     2
  6
DASHED
 10
115.188744
 20
-5.145902
 11
177.017166
 21
-5.145902
  0
LINE
  8
LC-003-002-----0
 62
     1
  6
CONTINUOUS
 10
177.017166
 20
-5.145902
 11
198.102951
 21
-5.145902
  0
LINE
  8
LC-003-002-----0
 62
     1
  6
CONTINUOUS
 10
177.102951
 20
-74.295898
 11
177.102951
 21
-82.645905
  0
LINE
  8
LC-006-012-----0
 62
     2
  6
DASHED
 10
177.102951
 20
-13.995902
 11
177.102951
 21
-74.295898
  0
LINE
  8
LC-006-012-----0
 62
     2
  6
DASHED
 10
115.102959
 20
-13.995902
 11
115.102959
 21
-74.295898
  0
LINE
  8
LC-001-150-----0
 62
     2
  6
CONTINUOUS
 10
136.130554
 20
-98.210846
 11
155.874832
 21
-95.589668
  0
LINE
  8
LC-001-150-----0
 62
     2
  6
CONTINUOUS
 10
155.874832
 20
-95.589668
 11
166.102951
 21
-97.617348
  0
LINE
  8
LC-001-150-----0
 62
     2
  6
CONTINUOUS
 10
126.102959
 20
8.613198
 11
136.130554
 21
9.919042
  0
LINE
  8
LC-001-150-----0
 62
     2
  6
CONTINUOUS
 10
136.130554
 20
9.919042
 11
155.874832
 21
7.297862
  0
LINE
  8
LC-001-150-----0
 62
     2
  6
CONTINUOUS
 10
155.874832
 20
7.297861
 11
166.102951
 21
9.325546
  0
LINE
  8
LC-003-002-----0
 62
     1
  6
CONTINUOUS
 10
126.102959
 20
8.613198
 11
126.102959
 21
-4.145903
  0
LINE
  8
LC-006-012-----0
 62
     2
  6
DASHED
 10
126.102959
 20
-4.145902
 11
126.102959
 21
-84.145905
  0
LINE
  8
LC-006-012-----0
 62
     2
  6
DASHED
 10
166.102951
 20
-4.145902
 11
166.102951
 21
-84.145905
  0
LINE
  8
LC-003-002-----0
 62
     1
  6
CONTINUOUS
 10
166.102951
 20
-84.145905
 11
166.102951
 21
-97.617348
  0
LINE
  8
LC-003-002-----0
 62
     1
  6
CONTINUOUS
 10
126.102959
 20
-84.145905
 11
126.102959
 21
-96.904999
  0
LINE
  8
LC-004-006-----0
 62
     2
  6
DASHDOT
 10
146.102951
 20
12.938649
 11
146.102951
 21
-101.604240
  0
LINE
  8
LC-003-002-----0
 62
     1
  6
CONTINUOUS
 10
119.873199
 20
-33.145901
 11
119.873199
 21
-55.145901
  0
ARC
  8
LC-003-002-----0
 62
     1
  6
CONTINUOUS
 10
121.873199
 20
-33.145901
 40
2.000000
 50
90.000003
 51
180.000009
  0
ARC
  8
LC-003-002-----0
 62
     1
  6
CONTINUOUS
 10
121.873199
 20
-55.145901
 40
2.000000
 50
180.000009
 51
269.999997
  0
LINE
  8
LC-004-006-----0
 62
     2
  6
DASHDOT
 10
110.050186
 20
146.088760
 11
110.050186
 21
105.567444
  0
LINE
  8
LC-003-002-----0
 62
     1
  6
CONTINUOUS
 10
97.082169
 20
123.785706
 11
120.477829
 21
123.785706
  0
LINE
  8
LC-003-002-----0
 62
     1
  6
CONTINUOUS
 10
96.907196
 20
121.785706
 11
118.755554
 21
121.785706
  0
LINE
  8
LC-006-012-----0
 62
     2
  6
DASHED
 10
120.477829
 20
123.785706
 11
124.262627
 21
123.785706
  0
LINE
  8
LC-006-012-----0
 62
     2
  6
DASHED
 10
118.755554
 20
121.785706
 11
122.417519
 21
121.785706
  0
LINE
  8
LC-003-002-----0
 62
     1
  6
CONTINUOUS
 10
97.082169
 20
123.785706
 11
98.234772
 21
136.960022
  0
LINE
  8
LC-003-002-----0
 62
     1
  6
CONTINUOUS
 10
114.050186
 20
123.785706
 11
114.050186
 21
121.785706
  0
LINE
  8
LC-003-002-----0
 62
     1
  6
CONTINUOUS
 10
106.050186
 20
123.785706
 11
106.050186
 21
121.785706
  0
LINE
  8
LC-001-150-----0
 62
     2
  6
CONTINUOUS
 10
113.550186
 20
123.785706
 11
113.550186
 21
121.785706
  0
LINE
  8
LC-001-150-----0
 62
     2
  6
CONTINUOUS
 10
106.550186
 20
123.785706
 11
106.550186
 21
121.785706
  0
LINE
  8
LC-003-002-----0
 62
     1
  6
CONTINUOUS
 10
278.351593
 20
143.555710
 11
278.351593
 21
139.385712
  0
ARC
  8
LC-003-002-----0
 62
     1
  6
CONTINUOUS
 10
282.104370
 20
130.534546
 40
13.551164
 50
73.922707
 51
106.077298
  0
LINE
  8
LC-003-002-----0
 62
     1
  6
CONTINUOUS
 10
285.857147
 20
143.555710
 11
285.857147
 21
139.385712
  0
LINE
  8
LC-003-002-----0
 62
     1
  6
CONTINUOUS
 10
289.609924
 20
143.555710
 11
289.609924
 21
139.385712
  0
ARC
  8
LC-003-002-----0
 62
     1
  6
CONTINUOUS
 10
287.733551
 20
140.499161
 40
3.586541
 50
58.454535
 51
121.545457
  0
LINE
  8
LC-003-002-----0
 62
     1
  6
CONTINUOUS
 10
287.733551
 20
144.085709
 11
276.475220
 21
144.085709
  0
LINE
  8
LC-003-002-----0
 62
     1
  6
CONTINUOUS
 10
288.755585
 20
139.385712
 11
288.755585
 21
138.785706
  0
LINE
  8
LC-003-002-----0
 62
     1
  6
CONTINUOUS
 10
275.453156
 20
139.385712
 11
275.453156
 21
138.785706
  0
LINE
  8
LC-003-002-----0
 62
     1
  6
CONTINUOUS
 10
288.755585
 20
138.785706
 11
275.453156
 21
138.785706
  0
LINE
  8
LC-004-006-----0
 62
     2
  6
DASHDOT
 10
110.050186
 20
-34.220814
 11
110.050186
 21
-53.982052
  0
LINE
  8
LC-003-002-----0
 62
     1
  6
CONTINUOUS
 10
274.598816
 20
143.555710
 11
274.598816
 21
139.385712
  0
ARC
  8
LC-003-002-----0
 62
     1
  6
CONTINUOUS
 10
276.475220
 20
140.499161
 40
3.586541
 50
58.454535
 51
121.545457
  0
LINE
  8
LC-003-002-----0
 62
     1
  6
CONTINUOUS
 10
289.609924
 20
139.385712
 11
274.598816
 21
139.385712
  0
LINE
  8
LC-003-002-----0
 62
     1
  6
CONTINUOUS
 10
286.104370
 20
123.785706
 11
286.104370
 21
121.785706
  0
LINE
  8
LC-003-002-----0
 62
     1
  6
CONTINUOUS
 10
278.104370
 20
123.785706
 11
278.104370
 21
121.785706
  0
LINE
  8
LC-001-150-----0
 62
     2
  6
CONTINUOUS
 10
285.604370
 20
123.785706
 11
285.604370
 21
121.785706
  0
LINE
  8
LC-001-150-----0
 62
     2
  6
CONTINUOUS
 10
278.604370
 20
123.785706
 11
278.604370
 21
121.785706
  0
LINE
  8
LC-003-002-----0
 62
     1
  6
CONTINUOUS
 10
254.104370
 20
123.785706
 11
310.104370
 21
123.785706
  0
LINE
  8
LC-003-002-----0
 62
     1
  6
CONTINUOUS
 10
254.104370
 20
121.785706
 11
310.104370
 21
121.785706
  0
LINE
  8
LC-003-002-----0
 62
     1
  6
CONTINUOUS
 10
269.104370
 20
123.785706
 11
269.104370
 21
144.785706
  0
LINE
  8
LC-003-002-----0
 62
     1
  6
CONTINUOUS
 10
295.104370
 20
123.785706
 11
295.104370
 21
144.785706
  0
LINE
  8
LC-003-002-----0
 62
     1
  6
CONTINUOUS
 10
102.544632
 20
143.555710
 11
102.544632
 21
139.385712
  0
ARC
  8
LC-003-002-----0
 62
     1
  6
CONTINUOUS
 10
104.421021
 20
140.499161
 40
3.586541
 50
58.454535
 51
121.545457
  0
LINE
  8
LC-003-002-----0
 62
     1
  6
CONTINUOUS
 10
106.297409
 20
143.555710
 11
106.297409
 21
139.385712
  0
ARC
  8
LC-003-002-----0
 62
     1
  6
CONTINUOUS
 10
110.050186
 20
130.534546
 40
13.551164
 50
73.922707
 51
106.077298
  0
LINE
  8
LC-003-002-----0
 62
     1
  6
CONTINUOUS
 10
113.802963
 20
143.555710
 11
113.802963
 21
139.385712
  0
LINE
  8
LC-003-002-----0
 62
     1
  6
CONTINUOUS
 10
117.555740
 20
143.555710
 11
117.555740
 21
139.385712
  0
ARC
  8
LC-003-002-----0
 62
     1
  6
CONTINUOUS
 10
115.679352
 20
140.499161
 40
3.586541
 50
58.454535
 51
121.545457
  0
LINE
  8
LC-003-002-----0
 62
     1
  6
CONTINUOUS
 10
115.679352
 20
144.085709
 11
104.421021
 21
144.085709
  0
LINE
  8
LC-003-002-----0
 62
     1
  6
CONTINUOUS
 10
117.555740
 20
139.385712
 11
102.544632
 21
139.385712
  0
LINE
  8
LC-003-002-----0
 62
     1
  6
CONTINUOUS
 10
116.701401
 20
139.385712
 11
116.701401
 21
138.785706
  0
LINE
  8
LC-003-002-----0
 62
     1
  6
CONTINUOUS
 10
103.398972
 20
139.385712
 11
103.398972
 21
138.785706
  0
LINE
  8
LC-003-002-----0
 62
     1
  6
CONTINUOUS
 10
116.701401
 20
138.785706
 11
103.398972
 21
138.785706
  0
LINE
  8
LC-003-002-----0
 62
     1
  6
CONTINUOUS
 10
113.802963
 20
-37.645901
 11
117.555733
 21
-44.145901
  0
LINE
  8
LC-003-002-----0
 62
     1
  6
CONTINUOUS
 10
102.544632
 20
-44.145901
 11
106.297409
 21
-50.645901
  0
LINE
  8
LC-003-002-----0
 62
     1
  6
CONTINUOUS
 10
106.297409
 20
-37.645901
 11
113.802963
 21
-37.645901
  0
LINE
  8
LC-003-002-----0
 62
     1
  6
CONTINUOUS
 10
106.297409
 20
-50.645901
 11
113.802963
 21
-50.645901
  0
LINE
  8
LC-003-002-----0
 62
     1
  6
CONTINUOUS
 10
102.544632
 20
-44.145901
 11
106.297409
 21
-37.645901
  0
LINE
  8
LC-003-002-----0
 62
     1
  6
CONTINUOUS
 10
113.802963
 20
-50.645901
 11
117.555733
 21
-44.145901
  0
CIRCLE
  8
LC-003-002-----0
 62
     1
  6
CONTINUOUS
 10
110.050186
 20
-44.145901
 40
6.500000
  0
ENDSEC
  0
EOF
