  0
SECTION
  2
HEADER
  9
$LIMMIN
 10
407.175079
 20
375.044830
  9
$LIMMAX
 10
734.151978
 20
682.636353
  9
$EXTMIN
 10
407.175079
 20
375.044830
  9
$EXTMAX
 10
734.151978
 20
682.636353
  0
ENDSEC
  0
SECTION
  2
TABLES
  0
TABLE
  2
LTYPE
 70
     3
  0
LTYPE
  2
CONTINUOUS
 70
    64
  3
Ausgezogene Linie
 72
    65
 73
     0
 40
0.0
  0
LTYPE
  2
DASHED
 70
    64
  3
__ __ __ __ __ __ __ __ __ __ __ __ __ __ __
 72
    65
 73
     2
 40
0.75
 49
0.5
 49
-0.25
  0
LTYPE
  2
DASHDOT
 70
    64
  3
__ . __ . __ . __ . __ . __ . __ . __ . __ . __
 72
    65
 73
     4
 40
1.0
 49
0.5
 49
-0.25
 49
0.0
 49
-0.25
  0
ENDTAB
  0
TABLE
  2
LAYER
 70
     4
  0
LAYER
  2
LC-003-002-----0
 70
    64
 62
     7
  6
CONTINUOUS
  0
LAYER
  2
LC-004-006-----0
 70
    64
 62
     7
  6
CONTINUOUS
  0
LAYER
  2
LC-006-012-----0
 70
    64
 62
     7
  6
CONTINUOUS
  0
LAYER
  2
LC-001-150-----0
 70
    64
 62
     7
  6
CONTINUOUS
  0
ENDTAB
  0
TABLE
  2
STYLE
 70
     1
  0
STYLE
  2
TXT8
 70
    64
 40
0.0
 41
1.0
 50
0.0
 71
     0
 42
3.500000
  3
TXT8
  4

  0
ENDTAB
  0
ENDSEC
  0
SECTION
  2
BLOCKS
  0
ENDSEC
  0
SECTION
  2
ENTITIES
  0
ARC
  8
LC-003-002-----0
 62
     1
  6
CONTINUOUS
 10
478.010437
 20
622.821838
 40
48.000000
 50
107.986951
 51
145.771140
  0
ARC
  8
LC-003-002-----0
 62
     1
  6
CONTINUOUS
 10
441.349823
 20
588.821838
 40
2.000000
 50
269.999997
 51
42.843642
  0
ARC
  8
LC-003-002-----0
 62
     1
  6
CONTINUOUS
 10
514.671021
 20
588.821838
 40
2.000000
 50
137.156359
 51
269.999997
  0
ARC
  8
LC-003-002-----0
 62
     1
  6
CONTINUOUS
 10
478.010437
 20
622.821838
 40
48.000000
 50
87.313279
 51
92.686726
  0
LINE
  8
LC-004-006-----0
 62
     2
  6
DASHDOT
 10
532.010437
 20
591.658447
 11
532.010437
 21
568.098389
  0
LINE
  8
LC-006-012-----0
 62
     2
  6
DASHED
 10
536.510437
 20
586.821838
 11
536.510437
 21
572.821838
  0
LINE
  8
LC-006-012-----0
 62
     2
  6
DASHED
 10
527.510437
 20
586.821838
 11
527.510437
 21
572.821838
  0
LINE
  8
LC-004-006-----0
 62
     2
  6
DASHDOT
 10
424.010437
 20
591.658447
 11
424.010437
 21
568.098389
  0
LINE
  8
LC-006-012-----0
 62
     2
  6
DASHED
 10
419.510437
 20
586.821838
 11
419.510437
 21
572.821838
  0
LINE
  8
LC-006-012-----0
 62
     2
  6
DASHED
 10
428.510437
 20
586.821838
 11
428.510437
 21
572.821838
  0
LINE
  8
LC-003-002-----0
 62
     1
  6
CONTINUOUS
 10
413.010437
 20
584.821838
 11
413.010437
 21
572.821838
  0
LINE
  8
LC-003-002-----0
 62
     1
  6
CONTINUOUS
 10
413.010437
 20
572.821838
 11
543.010437
 21
572.821838
  0
LINE
  8
LC-003-002-----0
 62
     1
  6
CONTINUOUS
 10
415.010437
 20
586.821838
 11
441.349823
 21
586.821838
  0
LINE
  8
LC-003-002-----0
 62
     1
  6
CONTINUOUS
 10
623.736450
 20
572.821838
 11
693.736450
 21
572.821838
  0
LINE
  8
LC-004-006-----0
 62
     2
  6
DASHDOT
 10
425.862457
 20
622.821838
 11
529.673645
 21
622.821838
  0
LINE
  8
LC-004-006-----0
 62
     2
  6
DASHDOT
 10
478.010437
 20
682.636353
 11
478.010437
 21
568.098389
  0
LINE
  8
LC-003-002-----0
 62
     1
  6
CONTINUOUS
 10
543.010437
 20
584.821838
 11
543.010437
 21
572.821838
  0
ARC
  8
LC-003-002-----0
 62
     1
  6
CONTINUOUS
 10
415.010437
 20
584.821838
 40
2.000000
 50
90.000003
 51
180.000009
  0
ARC
  8
LC-003-002-----0
 62
     1
  6
CONTINUOUS
 10
541.010437
 20
584.821838
 40
2.000000
 50
0.000000
 51
90.000003
  0
CIRCLE
  8
LC-003-002-----0
 62
     1
  6
CONTINUOUS
 10
478.010437
 20
622.821838
 40
25.000000
  0
CIRCLE
  8
LC-003-002-----0
 62
     1
  6
CONTINUOUS
 10
478.010437
 20
622.821838
 40
37.500000
  0
CIRCLE
  8
LC-003-002-----0
 62
     1
  6
CONTINUOUS
 10
478.010437
 20
622.821838
 40
33.000000
  0
LINE
  8
LC-003-002-----0
 62
     1
  6
CONTINUOUS
 10
693.736450
 20
572.821838
 11
693.736450
 21
584.821838
  0
LINE
  8
LC-003-002-----0
 62
     1
  6
CONTINUOUS
 10
542.960632
 20
585.265503
 11
531.639954
 21
635.023376
  0
LINE
  8
LC-003-002-----0
 62
     1
  6
CONTINUOUS
 10
413.018036
 20
584.996155
 11
418.514587
 21
647.821838
  0
LINE
  8
LC-003-002-----0
 62
     1
  6
CONTINUOUS
 10
422.097015
 20
667.821838
 11
445.761414
 21
667.821838
  0
ARC
  8
LC-003-002-----0
 62
     1
  6
CONTINUOUS
 10
422.097015
 20
665.821838
 40
2.000000
 50
90.000003
 51
175.000006
  0
ARC
  8
LC-003-002-----0
 62
     1
  6
CONTINUOUS
 10
445.761414
 20
669.821838
 40
2.000000
 50
269.999997
 51
304.455949
  0
ARC
  8
LC-003-002-----0
 62
     1
  6
CONTINUOUS
 10
478.010437
 20
622.821838
 40
55.000000
 50
12.817481
 51
124.455950
  0
LINE
  8
LC-003-002-----0
 62
     1
  6
CONTINUOUS
 10
645.736450
 20
677.821838
 11
671.736450
 21
677.821838
  0
LINE
  8
LC-003-002-----0
 62
     1
  6
CONTINUOUS
 10
514.671021
 20
586.821838
 11
541.010437
 21
586.821838
  0
LINE
  8
LC-003-002-----0
 62
     1
  6
CONTINUOUS
 10
625.736450
 20
586.821838
 11
691.736450
 21
586.821838
  0
LINE
  8
LC-003-002-----0
 62
     1
  6
CONTINUOUS
 10
623.736450
 20
572.821838
 11
623.736450
 21
584.821838
  0
ARC
  8
LC-003-002-----0
 62
     1
  6
CONTINUOUS
 10
625.736450
 20
584.821838
 40
2.000000
 50
90.000003
 51
180.000009
  0
ARC
  8
LC-003-002-----0
 62
     1
  6
CONTINUOUS
 10
691.736450
 20
584.821838
 40
2.000000
 50
0.000000
 51
90.000003
  0
LINE
  8
LC-004-006-----0
 62
     2
  6
DASHDOT
 10
658.736450
 20
568.098389
 11
658.736450
 21
682.636353
  0
LINE
  8
LC-003-002-----0
 62
     1
  6
CONTINUOUS
 10
624.736450
 20
670.821838
 11
641.736450
 21
670.821838
  0
LINE
  8
LC-003-002-----0
 62
     1
  6
CONTINUOUS
 10
694.736450
 20
576.821838
 11
694.736450
 21
668.821838
  0
LINE
  8
LC-003-002-----0
 62
     1
  6
CONTINUOUS
 10
622.736450
 20
576.821838
 11
622.736450
 21
668.821838
  0
ARC
  8
LC-003-002-----0
 62
     1
  6
CONTINUOUS
 10
624.736450
 20
668.821838
 40
2.000000
 50
90.000003
 51
180.000009
  0
ARC
  8
LC-003-002-----0
 62
     1
  6
CONTINUOUS
 10
692.736450
 20
668.821838
 40
2.000000
 50
0.000000
 51
90.000003
  0
LINE
  8
LC-003-002-----0
 62
     1
  6
CONTINUOUS
 10
673.736450
 20
588.821838
 11
673.736450
 21
647.821838
  0
LINE
  8
LC-003-002-----0
 62
     1
  6
CONTINUOUS
 10
643.736450
 20
588.821838
 11
643.736450
 21
647.821838
  0
ARC
  8
LC-003-002-----0
 62
     1
  6
CONTINUOUS
 10
645.736450
 20
675.821838
 40
2.000000
 50
90.000003
 51
180.000009
  0
ARC
  8
LC-003-002-----0
 62
     1
  6
CONTINUOUS
 10
478.010437
 20
620.571838
 40
42.599998
 50
116.112874
 51
63.887131
  0
ARC
  8
LC-003-002-----0
 62
     1
  6
CONTINUOUS
 10
671.736450
 20
675.821838
 40
2.000000
 50
0.000000
 51
90.000003
  0
ARC
  8
LC-003-002-----0
 62
     1
  6
CONTINUOUS
 10
675.736450
 20
672.821838
 40
2.000000
 50
180.000009
 51
269.999997
  0
ARC
  8
LC-003-002-----0
 62
     1
  6
CONTINUOUS
 10
641.736450
 20
672.821838
 40
2.000000
 50
269.999997
 51
0.000000
  0
LINE
  8
LC-003-002-----0
 62
     1
  6
CONTINUOUS
 10
675.736450
 20
670.821838
 11
692.736450
 21
670.821838
  0
ARC
  8
LC-003-002-----0
 62
     1
  6
CONTINUOUS
 10
641.736450
 20
588.821838
 40
2.000000
 50
269.999997
 51
0.000000
  0
ARC
  8
LC-003-002-----0
 62
     1
  6
CONTINUOUS
 10
675.736450
 20
588.821838
 40
2.000000
 50
180.000009
 51
269.999997
  0
LINE
  8
LC-003-002-----0
 62
     1
  6
CONTINUOUS
 10
645.736450
 20
667.821838
 11
671.736450
 21
667.821838
  0
ARC
  8
LC-003-002-----0
 62
     1
  6
CONTINUOUS
 10
645.736450
 20
665.821838
 40
2.000000
 50
90.000003
 51
180.000009
  0
LINE
  8
LC-003-002-----0
 62
     1
  6
CONTINUOUS
 10
459.260437
 20
658.823608
 11
461.370270
 21
665.595703
  0
LINE
  8
LC-003-002-----0
 62
     1
  6
CONTINUOUS
 10
466.497925
 20
670.127380
 11
475.760437
 21
671.801147
  0
LINE
  8
LC-003-002-----0
 62
     1
  6
CONTINUOUS
 10
475.760437
 20
660.254272
 11
475.760437
 21
671.801147
  0
LINE
  8
LC-003-002-----0
 62
     1
  6
CONTINUOUS
 10
480.260437
 20
660.254272
 11
480.260437
 21
671.801147
  0
LINE
  8
LC-003-002-----0
 62
     1
  6
CONTINUOUS
 10
480.260437
 20
671.801147
 11
489.522949
 21
670.127380
  0
LINE
  8
LC-003-002-----0
 62
     1
  6
CONTINUOUS
 10
496.760437
 20
658.823608
 11
494.650604
 21
665.595703
  0
CIRCLE
  8
LC-003-002-----0
 62
     1
  6
CONTINUOUS
 10
486.260437
 20
665.201172
 40
3.000000
  0
ARC
  8
LC-003-002-----0
 62
     1
  6
CONTINUOUS
 10
671.736450
 20
665.821838
 40
2.000000
 50
0.000000
 51
90.000003
  0
CIRCLE
  8
LC-003-002-----0
 62
     1
  6
CONTINUOUS
 10
469.760437
 20
665.201172
 40
3.000000
  0
ARC
  8
LC-003-002-----0
 62
     1
  6
CONTINUOUS
 10
467.671570
 20
663.632568
 40
6.600000
 50
100.242964
 51
162.695707
  0
ARC
  8
LC-003-002-----0
 62
     1
  6
CONTINUOUS
 10
488.349335
 20
663.632568
 40
6.600000
 50
17.304295
 51
79.757034
  0
LINE
  8
LC-004-006-----0
 62
     2
  6
DASHDOT
 10
633.736450
 20
591.658447
 11
633.736450
 21
568.098389
  0
LINE
  8
LC-004-006-----0
 62
     2
  6
DASHDOT
 10
683.736450
 20
591.658447
 11
683.736450
 21
568.098389
  0
LINE
  8
LC-006-012-----0
 62
     2
  6
DASHED
 10
688.236450
 20
586.821838
 11
688.236450
 21
572.821838
  0
LINE
  8
LC-006-012-----0
 62
     2
  6
DASHED
 10
679.236450
 20
586.821838
 11
679.236450
 21
572.821838
  0
LINE
  8
LC-003-002-----0
 62
     1
  6
CONTINUOUS
 10
620.086426
 20
671.801147
 11
622.736450
 21
671.801147
  0
LINE
  8
LC-006-012-----0
 62
     2
  6
DASHED
 10
629.236450
 20
586.821838
 11
629.236450
 21
572.821838
  0
LINE
  8
LC-006-012-----0
 62
     2
  6
DASHED
 10
638.236450
 20
586.821838
 11
638.236450
 21
572.821838
  0
ARC
  8
LC-003-002-----0
 62
     1
  6
CONTINUOUS
 10
624.736450
 20
576.821838
 40
2.000000
 50
180.000009
 51
239.999997
  0
ARC
  8
LC-003-002-----0
 62
     1
  6
CONTINUOUS
 10
692.736450
 20
576.821838
 40
2.000000
 50
299.999998
 51
0.000000
  0
LINE
  8
LC-003-002-----0
 62
     1
  6
CONTINUOUS
 10
620.086426
 20
577.971802
 11
622.736450
 21
577.971802
  0
LINE
  8
LC-003-002-----0
 62
     1
  6
CONTINUOUS
 10
620.086426
 20
577.971802
 11
620.086426
 21
671.801147
  0
LINE
  8
LC-003-002-----0
 62
     1
  6
CONTINUOUS
 10
622.736450
 20
668.821838
 11
622.736450
 21
671.801147
  0
LINE
  8
LC-003-002-----0
 62
     1
  6
CONTINUOUS
 10
620.086426
 20
658.823608
 11
622.736450
 21
658.823608
  0
LINE
  8
LC-003-002-----0
 62
     1
  6
CONTINUOUS
 10
413.010437
 20
483.049591
 11
413.010437
 21
417.049591
  0
LINE
  8
LC-003-002-----0
 62
     1
  6
CONTINUOUS
 10
697.386414
 20
671.801147
 11
694.736450
 21
671.801147
  0
LINE
  8
LC-003-002-----0
 62
     1
  6
CONTINUOUS
 10
697.386414
 20
577.971802
 11
694.736450
 21
577.971802
  0
LINE
  8
LC-003-002-----0
 62
     1
  6
CONTINUOUS
 10
697.386414
 20
577.971802
 11
697.386414
 21
671.801147
  0
LINE
  8
LC-003-002-----0
 62
     1
  6
CONTINUOUS
 10
694.736450
 20
668.821838
 11
694.736450
 21
671.801147
  0
LINE
  8
LC-003-002-----0
 62
     1
  6
CONTINUOUS
 10
697.386414
 20
658.823608
 11
694.736450
 21
658.823608
  0
LINE
  8
LC-003-002-----0
 62
     1
  6
CONTINUOUS
 10
415.010437
 20
415.049591
 11
430.278381
 21
415.049591
  0
LINE
  8
LC-003-002-----0
 62
     1
  6
CONTINUOUS
 10
610.736450
 20
660.321838
 11
620.086426
 21
660.321838
  0
LINE
  8
LC-003-002-----0
 62
     1
  6
CONTINUOUS
 10
610.736450
 20
585.321838
 11
620.086426
 21
585.321838
  0
LINE
  8
LC-003-002-----0
 62
     1
  6
CONTINUOUS
 10
708.736450
 20
587.321838
 11
708.736450
 21
658.321838
  0
LINE
  8
LC-003-002-----0
 62
     1
  6
CONTINUOUS
 10
608.736450
 20
587.321838
 11
608.736450
 21
658.321838
  0
ARC
  8
LC-003-002-----0
 62
     1
  6
CONTINUOUS
 10
610.736450
 20
658.321838
 40
2.000000
 50
90.000003
 51
180.000009
  0
ARC
  8
LC-003-002-----0
 62
     1
  6
CONTINUOUS
 10
610.736450
 20
587.321838
 40
2.000000
 50
180.000009
 51
269.999997
  0
ARC
  8
LC-003-002-----0
 62
     1
  6
CONTINUOUS
 10
706.736450
 20
587.321838
 40
2.000000
 50
269.999997
 51
0.000000
  0
ARC
  8
LC-003-002-----0
 62
     1
  6
CONTINUOUS
 10
706.736450
 20
658.321838
 40
2.000000
 50
0.000000
 51
90.000003
  0
LINE
  8
LC-003-002-----0
 62
     1
  6
CONTINUOUS
 10
543.010437
 20
483.049591
 11
543.010437
 21
417.049591
  0
LINE
  8
LC-006-012-----0
 62
     2
  6
DASHED
 10
620.086426
 20
660.321838
 11
697.386414
 21
660.321838
  0
LINE
  8
LC-006-012-----0
 62
     2
  6
DASHED
 10
620.086426
 20
585.321838
 11
697.386414
 21
585.321838
  0
LINE
  8
LC-003-002-----0
 62
     1
  6
CONTINUOUS
 10
697.386414
 20
585.321838
 11
706.736450
 21
585.321838
  0
LINE
  8
LC-003-002-----0
 62
     1
  6
CONTINUOUS
 10
697.386414
 20
660.321838
 11
706.736450
 21
660.321838
  0
LINE
  8
LC-003-002-----0
 62
     1
  6
CONTINUOUS
 10
586.927917
 20
647.821838
 11
608.736450
 21
647.821838
  0
LINE
  8
LC-003-002-----0
 62
     1
  6
CONTINUOUS
 10
589.685303
 20
597.821838
 11
608.736450
 21
597.821838
  0
LINE
  8
LC-004-006-----0
 62
     2
  6
DASHDOT
 10
584.338135
 20
622.821838
 11
734.151978
 21
622.821838
  0
LINE
  8
LC-001-150-----0
 62
     2
  6
CONTINUOUS
 10
589.685303
 20
597.821838
 11
590.618225
 21
608.736694
  0
LINE
  8
LC-001-150-----0
 62
     2
  6
CONTINUOUS
 10
590.618225
 20
608.736694
 11
586.927917
 21
634.915405
  0
LINE
  8
LC-001-150-----0
 62
     2
  6
CONTINUOUS
 10
586.927917
 20
634.915405
 11
586.927917
 21
647.821838
  0
LINE
  8
LC-001-150-----0
 62
     2
  6
CONTINUOUS
 10
727.218506
 20
597.821838
 11
729.630066
 21
610.549927
  0
LINE
  8
LC-001-150-----0
 62
     2
  6
CONTINUOUS
 10
729.630066
 20
610.549927
 11
728.359985
 21
633.880554
  0
LINE
  8
LC-001-150-----0
 62
     2
  6
CONTINUOUS
 10
728.359985
 20
633.880554
 11
728.993103
 21
647.821838
  0
LINE
  8
LC-006-012-----0
 62
     2
  6
DASHED
 10
608.736450
 20
647.821838
 11
708.736450
 21
647.821838
  0
LINE
  8
LC-006-012-----0
 62
     2
  6
DASHED
 10
608.736450
 20
597.821838
 11
708.736450
 21
597.821838
  0
LINE
  8
LC-003-002-----0
 62
     1
  6
CONTINUOUS
 10
708.736450
 20
597.821838
 11
727.218506
 21
597.821838
  0
LINE
  8
LC-003-002-----0
 62
     1
  6
CONTINUOUS
 10
708.736450
 20
647.821838
 11
728.993103
 21
647.821838
  0
LINE
  8
LC-003-002-----0
 62
     1
  6
CONTINUOUS
 10
415.010437
 20
485.049591
 11
430.278381
 21
485.049591
  0
LINE
  8
LC-004-006-----0
 62
     2
  6
DASHDOT
 10
407.175079
 20
450.049591
 11
548.932922
 21
450.049591
  0
ARC
  8
LC-003-002-----0
 62
     1
  6
CONTINUOUS
 10
415.010437
 20
483.049591
 40
2.000000
 50
90.000003
 51
180.000009
  0
ARC
  8
LC-003-002-----0
 62
     1
  6
CONTINUOUS
 10
415.010437
 20
417.049591
 40
2.000000
 50
180.000009
 51
269.999997
  0
ARC
  8
LC-003-002-----0
 62
     1
  6
CONTINUOUS
 10
541.010437
 20
417.049591
 40
2.000000
 50
269.999997
 51
0.000000
  0
ARC
  8
LC-003-002-----0
 62
     1
  6
CONTINUOUS
 10
541.010437
 20
483.049591
 40
2.000000
 50
0.000000
 51
90.000003
  0
LINE
  8
LC-003-002-----0
 62
     1
  6
CONTINUOUS
 10
413.010437
 20
465.049591
 11
543.010437
 21
465.049591
  0
LINE
  8
LC-003-002-----0
 62
     1
  6
CONTINUOUS
 10
413.010437
 20
435.049591
 11
543.010437
 21
435.049591
  0
LINE
  8
LC-003-002-----0
 62
     1
  6
CONTINUOUS
 10
420.104645
 20
463.049591
 11
420.104645
 21
437.049591
  0
ARC
  8
LC-003-002-----0
 62
     1
  6
CONTINUOUS
 10
422.104645
 20
437.049591
 40
2.000000
 50
180.000009
 51
269.999997
  0
ARC
  8
LC-003-002-----0
 62
     1
  6
CONTINUOUS
 10
422.104645
 20
463.049591
 40
2.000000
 50
90.000003
 51
180.000009
  0
LINE
  8
LC-003-002-----0
 62
     1
  6
CONTINUOUS
 10
430.010437
 20
484.049591
 11
430.010437
 21
467.049591
  0
LINE
  8
LC-003-002-----0
 62
     1
  6
CONTINUOUS
 10
526.010437
 20
484.049591
 11
526.010437
 21
467.049591
  0
LINE
  8
LC-003-002-----0
 62
     1
  6
CONTINUOUS
 10
432.010437
 20
486.049591
 11
524.010437
 21
486.049591
  0
LINE
  8
LC-003-002-----0
 62
     1
  6
CONTINUOUS
 10
432.010437
 20
414.049591
 11
524.010437
 21
414.049591
  0
ARC
  8
LC-003-002-----0
 62
     1
  6
CONTINUOUS
 10
432.010437
 20
484.049591
 40
2.000000
 50
90.000003
 51
180.000009
  0
ARC
  8
LC-003-002-----0
 62
     1
  6
CONTINUOUS
 10
524.010437
 20
484.049591
 40
2.000000
 50
0.000000
 51
90.000003
  0
ARC
  8
LC-003-002-----0
 62
     1
  6
CONTINUOUS
 10
524.010437
 20
416.049591
 40
2.000000
 50
269.999997
 51
0.000000
  0
ARC
  8
LC-003-002-----0
 62
     1
  6
CONTINUOUS
 10
432.010437
 20
416.049591
 40
2.000000
 50
180.000009
 51
269.999997
  0
LINE
  8
LC-006-012-----0
 62
     2
  6
DASHED
 10
430.278381
 20
485.049591
 11
525.742493
 21
485.049591
  0
LINE
  8
LC-003-002-----0
 62
     1
  6
CONTINUOUS
 10
525.742493
 20
485.049591
 11
541.010437
 21
485.049591
  0
LINE
  8
LC-006-012-----0
 62
     2
  6
DASHED
 10
430.278381
 20
415.049591
 11
525.742493
 21
415.049591
  0
LINE
  8
LC-003-002-----0
 62
     1
  6
CONTINUOUS
 10
525.742493
 20
415.049591
 11
541.010437
 21
415.049591
  0
LINE
  8
LC-003-002-----0
 62
     1
  6
CONTINUOUS
 10
430.010437
 20
433.049591
 11
430.010437
 21
416.049591
  0
LINE
  8
LC-003-002-----0
 62
     1
  6
CONTINUOUS
 10
526.010437
 20
433.049591
 11
526.010437
 21
416.049591
  0
ARC
  8
LC-003-002-----0
 62
     1
  6
CONTINUOUS
 10
428.010437
 20
467.049591
 40
2.000000
 50
269.999997
 51
0.000000
  0
ARC
  8
LC-003-002-----0
 62
     1
  6
CONTINUOUS
 10
428.010437
 20
433.049591
 40
2.000000
 50
0.000000
 51
90.000003
  0
ARC
  8
LC-003-002-----0
 62
     1
  6
CONTINUOUS
 10
528.010437
 20
467.049591
 40
2.000000
 50
180.000009
 51
269.999997
  0
ARC
  8
LC-003-002-----0
 62
     1
  6
CONTINUOUS
 10
528.010437
 20
433.049591
 40
2.000000
 50
90.000003
 51
180.000009
  0
LINE
  8
LC-004-006-----0
 62
     2
  6
DASHDOT
 10
424.010437
 20
481.956635
 11
424.010437
 21
467.555725
  0
LINE
  8
LC-004-006-----0
 62
     2
  6
DASHDOT
 10
417.272003
 20
475.049591
 11
431.343719
 21
475.049591
  0
CIRCLE
  8
LC-003-002-----0
 62
     1
  6
CONTINUOUS
 10
424.010437
 20
475.049591
 40
4.500000
  0
LINE
  8
LC-004-006-----0
 62
     2
  6
DASHDOT
 10
424.010437
 20
418.142548
 11
424.010437
 21
432.543457
  0
LINE
  8
LC-004-006-----0
 62
     2
  6
DASHDOT
 10
417.272003
 20
425.049591
 11
431.343719
 21
425.049591
  0
CIRCLE
  8
LC-003-002-----0
 62
     1
  6
CONTINUOUS
 10
424.010437
 20
425.049591
 40
4.500000
  0
LINE
  8
LC-004-006-----0
 62
     2
  6
DASHDOT
 10
532.010437
 20
481.956635
 11
532.010437
 21
467.555725
  0
LINE
  8
LC-004-006-----0
 62
     2
  6
DASHDOT
 10
538.748901
 20
475.049591
 11
524.677185
 21
475.049591
  0
CIRCLE
  8
LC-003-002-----0
 62
     1
  6
CONTINUOUS
 10
532.010437
 20
475.049591
 40
4.500000
  0
LINE
  8
LC-004-006-----0
 62
     2
  6
DASHDOT
 10
532.010437
 20
418.142548
 11
532.010437
 21
432.543457
  0
LINE
  8
LC-004-006-----0
 62
     2
  6
DASHDOT
 10
538.748901
 20
425.049591
 11
524.677185
 21
425.049591
  0
CIRCLE
  8
LC-003-002-----0
 62
     1
  6
CONTINUOUS
 10
532.010437
 20
425.049591
 40
4.500000
  0
LINE
  8
LC-003-002-----0
 62
     1
  6
CONTINUOUS
 10
440.510437
 20
498.049591
 11
440.510437
 21
488.699585
  0
LINE
  8
LC-003-002-----0
 62
     1
  6
CONTINUOUS
 10
515.510437
 20
498.049591
 11
515.510437
 21
488.699585
  0
LINE
  8
LC-003-002-----0
 62
     1
  6
CONTINUOUS
 10
442.510437
 20
500.049591
 11
513.510437
 21
500.049591
  0
LINE
  8
LC-003-002-----0
 62
     1
  6
CONTINUOUS
 10
442.510437
 20
400.049591
 11
513.510437
 21
400.049591
  0
ARC
  8
LC-003-002-----0
 62
     1
  6
CONTINUOUS
 10
442.510437
 20
498.049591
 40
2.000000
 50
90.000003
 51
180.000009
  0
ARC
  8
LC-003-002-----0
 62
     1
  6
CONTINUOUS
 10
513.510437
 20
498.049591
 40
2.000000
 50
0.000000
 51
90.000003
  0
ARC
  8
LC-003-002-----0
 62
     1
  6
CONTINUOUS
 10
513.510437
 20
402.049591
 40
2.000000
 50
269.999997
 51
0.000000
  0
ARC
  8
LC-003-002-----0
 62
     1
  6
CONTINUOUS
 10
442.510437
 20
402.049591
 40
2.000000
 50
180.000009
 51
269.999997
  0
LINE
  8
LC-006-012-----0
 62
     2
  6
DASHED
 10
440.510437
 20
488.699585
 11
440.510437
 21
411.399597
  0
LINE
  8
LC-006-012-----0
 62
     2
  6
DASHED
 10
515.510437
 20
488.699585
 11
515.510437
 21
411.399597
  0
LINE
  8
LC-003-002-----0
 62
     1
  6
CONTINUOUS
 10
515.510437
 20
411.399597
 11
515.510437
 21
402.049591
  0
LINE
  8
LC-003-002-----0
 62
     1
  6
CONTINUOUS
 10
440.510437
 20
411.399597
 11
440.510437
 21
402.049591
  0
LINE
  8
LC-003-002-----0
 62
     1
  6
CONTINUOUS
 10
453.010437
 20
519.594421
 11
453.010437
 21
500.049591
  0
LINE
  8
LC-001-150-----0
 62
     2
  6
CONTINUOUS
 10
453.010437
 20
519.594421
 11
467.643280
 21
517.394653
  0
LINE
  8
LC-001-150-----0
 62
     2
  6
CONTINUOUS
 10
467.643280
 20
517.394653
 11
490.773315
 21
519.873901
  0
LINE
  8
LC-001-150-----0
 62
     2
  6
CONTINUOUS
 10
490.773315
 20
519.873901
 11
503.010437
 21
519.614929
  0
LINE
  8
LC-004-006-----0
 62
     2
  6
DASHDOT
 10
478.010437
 20
524.165588
 11
478.010437
 21
375.044830
  0
LINE
  8
LC-001-150-----0
 62
     2
  6
CONTINUOUS
 10
453.010437
 20
380.504761
 11
467.643280
 21
382.704529
  0
LINE
  8
LC-001-150-----0
 62
     2
  6
CONTINUOUS
 10
467.643280
 20
382.704529
 11
490.773315
 21
380.225281
  0
LINE
  8
LC-001-150-----0
 62
     2
  6
CONTINUOUS
 10
490.773315
 20
380.225281
 11
503.010437
 21
380.484283
  0
LINE
  8
LC-006-012-----0
 62
     2
  6
DASHED
 10
453.010437
 20
500.049591
 11
453.010437
 21
400.049591
  0
LINE
  8
LC-003-002-----0
 62
     1
  6
CONTINUOUS
 10
503.010437
 20
519.614929
 11
503.010437
 21
500.049561
  0
LINE
  8
LC-006-012-----0
 62
     2
  6
DASHED
 10
503.010437
 20
500.049591
 11
503.010437
 21
400.049591
  0
LINE
  8
LC-003-002-----0
 62
     1
  6
CONTINUOUS
 10
453.010437
 20
400.049591
 11
453.010437
 21
380.504761
  0
LINE
  8
LC-003-002-----0
 62
     1
  6
CONTINUOUS
 10
503.010437
 20
400.049591
 11
503.010437
 21
380.484283
  0
LINE
  8
LC-003-002-----0
 62
     1
  6
CONTINUOUS
 10
435.469910
 20
488.699585
 11
435.469910
 21
486.049591
  0
LINE
  8
LC-003-002-----0
 62
     1
  6
CONTINUOUS
 10
475.760437
 20
488.699585
 11
475.760437
 21
486.049591
  0
LINE
  8
LC-003-002-----0
 62
     1
  6
CONTINUOUS
 10
480.260437
 20
488.699585
 11
480.260437
 21
486.049591
  0
LINE
  8
LC-003-002-----0
 62
     1
  6
CONTINUOUS
 10
520.550964
 20
488.699585
 11
520.550964
 21
486.049591
  0
LINE
  8
LC-003-002-----0
 62
     1
  6
CONTINUOUS
 10
435.469910
 20
488.699585
 11
520.550964
 21
488.699585
  0
LINE
  8
LC-003-002-----0
 62
     1
  6
CONTINUOUS
 10
435.469910
 20
411.399597
 11
435.469910
 21
414.049591
  0
LINE
  8
LC-003-002-----0
 62
     1
  6
CONTINUOUS
 10
475.760437
 20
411.399597
 11
475.760437
 21
414.049591
  0
LINE
  8
LC-003-002-----0
 62
     1
  6
CONTINUOUS
 10
480.260437
 20
411.399597
 11
480.260437
 21
414.049591
  0
LINE
  8
LC-003-002-----0
 62
     1
  6
CONTINUOUS
 10
520.550964
 20
411.399597
 11
520.550964
 21
414.049591
  0
LINE
  8
LC-003-002-----0
 62
     1
  6
CONTINUOUS
 10
435.469910
 20
411.399597
 11
520.550964
 21
411.399597
  0
LINE
  8
LC-003-002-----0
 62
     1
  6
CONTINUOUS
 10
445.761414
 20
462.549591
 11
445.761414
 21
437.549591
  0
ARC
  8
LC-003-002-----0
 62
     1
  6
CONTINUOUS
 10
448.261414
 20
462.549591
 40
2.500000
 50
90.000003
 51
180.000009
  0
ARC
  8
LC-003-002-----0
 62
     1
  6
CONTINUOUS
 10
448.261414
 20
437.549591
 40
2.500000
 50
180.000009
 51
269.999997
  0
LINE
  8
LC-004-006-----0
 62
     2
  6
DASHDOT
 10
433.929230
 20
626.708496
 11
433.929230
 21
676.419861
  0
LINE
  8
LC-003-002-----0
 62
     1
  6
CONTINUOUS
 10
430.176453
 20
672.591797
 11
430.176453
 21
668.421814
  0
ARC
  8
LC-003-002-----0
 62
     1
  6
CONTINUOUS
 10
433.929230
 20
659.570679
 40
13.551164
 50
73.922707
 51
106.077298
  0
LINE
  8
LC-003-002-----0
 62
     1
  6
CONTINUOUS
 10
437.682007
 20
672.591797
 11
437.682007
 21
668.421814
  0
LINE
  8
LC-003-002-----0
 62
     1
  6
CONTINUOUS
 10
441.434784
 20
672.591797
 11
441.434784
 21
668.421814
  0
ARC
  8
LC-003-002-----0
 62
     1
  6
CONTINUOUS
 10
439.558380
 20
669.535278
 40
3.586541
 50
58.454535
 51
121.545457
  0
LINE
  8
LC-003-002-----0
 62
     1
  6
CONTINUOUS
 10
439.558380
 20
673.121826
 11
428.300049
 21
673.121826
  0
LINE
  8
LC-003-002-----0
 62
     1
  6
CONTINUOUS
 10
440.580414
 20
668.421814
 11
440.580414
 21
667.821838
  0
LINE
  8
LC-003-002-----0
 62
     1
  6
CONTINUOUS
 10
427.278015
 20
668.421814
 11
427.278015
 21
667.821838
  0
LINE
  8
LC-003-002-----0
 62
     1
  6
CONTINUOUS
 10
440.580414
 20
667.821838
 11
427.278015
 21
667.821838
  0
LINE
  8
LC-003-002-----0
 62
     1
  6
CONTINUOUS
 10
654.983643
 20
672.591797
 11
654.983643
 21
668.421814
  0
LINE
  8
LC-003-002-----0
 62
     1
  6
CONTINUOUS
 10
426.423676
 20
672.591797
 11
426.423676
 21
668.421814
  0
LINE
  8
LC-003-002-----0
 62
     1
  6
CONTINUOUS
 10
441.434784
 20
668.421814
 11
426.423676
 21
668.421814
  0
LINE
  8
LC-004-006-----0
 62
     2
  6
DASHDOT
 10
433.929230
 20
459.974670
 11
433.929230
 21
440.213440
  0
LINE
  8
LC-003-002-----0
 62
     1
  6
CONTINUOUS
 10
437.682007
 20
456.549591
 11
441.434784
 21
450.049591
  0
LINE
  8
LC-003-002-----0
 62
     1
  6
CONTINUOUS
 10
426.423676
 20
450.049591
 11
430.176453
 21
443.549591
  0
LINE
  8
LC-003-002-----0
 62
     1
  6
CONTINUOUS
 10
430.176453
 20
456.549591
 11
437.682007
 21
456.549591
  0
LINE
  8
LC-003-002-----0
 62
     1
  6
CONTINUOUS
 10
430.176453
 20
443.549591
 11
437.682007
 21
443.549591
  0
LINE
  8
LC-003-002-----0
 62
     1
  6
CONTINUOUS
 10
426.423676
 20
450.049591
 11
430.176453
 21
456.549591
  0
LINE
  8
LC-003-002-----0
 62
     1
  6
CONTINUOUS
 10
437.682007
 20
443.549591
 11
441.434784
 21
450.049591
  0
CIRCLE
  8
LC-003-002-----0
 62
     1
  6
CONTINUOUS
 10
433.929230
 20
450.049591
 40
6.500000
  0
ARC
  8
LC-003-002-----0
 62
     1
  6
CONTINUOUS
 10
658.736450
 20
659.570679
 40
13.551164
 50
73.922707
 51
106.077298
  0
ARC
  8
LC-003-002-----0
 62
     1
  6
CONTINUOUS
 10
428.300049
 20
669.535278
 40
3.586541
 50
58.454535
 51
121.545457
  0
LINE
  8
LC-006-012-----0
 62
     2
  6
DASHED
 10
451.986420
 20
649.821838
 11
447.039520
 21
649.821838
  0
LINE
  8
LC-003-002-----0
 62
     1
  6
CONTINUOUS
 10
447.039520
 20
649.821838
 11
418.689575
 21
649.821838
  0
LINE
  8
LC-006-012-----0
 62
     2
  6
DASHED
 10
450.059601
 20
647.821838
 11
445.266022
 21
647.821838
  0
LINE
  8
LC-003-002-----0
 62
     1
  6
CONTINUOUS
 10
445.266022
 20
647.821838
 11
418.514587
 21
647.821838
  0
ARC
  8
LC-003-002-----0
 62
     1
  6
CONTINUOUS
 10
478.010437
 20
622.821838
 40
48.000000
 50
148.611830
 51
72.013054
  0
LINE
  8
LC-003-002-----0
 62
     1
  6
CONTINUOUS
 10
418.689575
 20
649.821838
 11
420.104645
 21
665.996155
  0
LINE
  8
LC-003-002-----0
 62
     1
  6
CONTINUOUS
 10
437.929230
 20
647.821838
 11
437.929230
 21
649.821838
  0
LINE
  8
LC-003-002-----0
 62
     1
  6
CONTINUOUS
 10
429.929230
 20
647.821838
 11
429.929230
 21
649.821838
  0
LINE
  8
LC-001-150-----0
 62
     2
  6
CONTINUOUS
 10
437.429230
 20
647.821838
 11
437.429230
 21
649.821838
  0
LINE
  8
LC-001-150-----0
 62
     2
  6
CONTINUOUS
 10
430.429230
 20
647.821838
 11
430.429230
 21
649.821838
  0
LINE
  8
LC-003-002-----0
 62
     1
  6
CONTINUOUS
 10
662.489197
 20
672.591797
 11
662.489197
 21
668.421814
  0
LINE
  8
LC-003-002-----0
 62
     1
  6
CONTINUOUS
 10
666.242004
 20
672.591797
 11
666.242004
 21
668.421814
  0
ARC
  8
LC-003-002-----0
 62
     1
  6
CONTINUOUS
 10
664.365601
 20
669.535278
 40
3.586541
 50
58.454535
 51
121.545457
  0
LINE
  8
LC-003-002-----0
 62
     1
  6
CONTINUOUS
 10
664.365601
 20
673.121826
 11
653.107300
 21
673.121826
  0
LINE
  8
LC-003-002-----0
 62
     1
  6
CONTINUOUS
 10
665.387634
 20
668.421814
 11
665.387634
 21
667.821838
  0
LINE
  8
LC-003-002-----0
 62
     1
  6
CONTINUOUS
 10
652.085205
 20
668.421814
 11
652.085205
 21
667.821838
  0
LINE
  8
LC-003-002-----0
 62
     1
  6
CONTINUOUS
 10
665.387634
 20
667.821838
 11
652.085205
 21
667.821838
  0
LINE
  8
LC-003-002-----0
 62
     1
  6
CONTINUOUS
 10
651.230896
 20
672.591797
 11
651.230896
 21
668.421814
  0
LINE
  8
LC-003-002-----0
 62
     1
  6
CONTINUOUS
 10
666.242004
 20
668.421814
 11
651.230896
 21
668.421814
  0
ARC
  8
LC-003-002-----0
 62
     1
  6
CONTINUOUS
 10
653.107239
 20
669.535278
 40
3.586541
 50
58.454535
 51
121.545457
  0
LINE
  8
LC-003-002-----0
 62
     1
  6
CONTINUOUS
 10
662.736450
 20
647.821838
 11
662.736450
 21
649.821838
  0
LINE
  8
LC-003-002-----0
 62
     1
  6
CONTINUOUS
 10
654.736450
 20
647.821838
 11
654.736450
 21
649.821838
  0
LINE
  8
LC-001-150-----0
 62
     2
  6
CONTINUOUS
 10
662.236450
 20
647.821838
 11
662.236450
 21
649.821838
  0
LINE
  8
LC-001-150-----0
 62
     2
  6
CONTINUOUS
 10
655.236450
 20
647.821838
 11
655.236450
 21
649.821838
  0
LINE
  8
LC-003-002-----0
 62
     1
  6
CONTINUOUS
 10
694.736450
 20
649.821838
 11
622.736450
 21
649.821838
  0
LINE
  8
LC-003-002-----0
 62
     1
  6
CONTINUOUS
 10
694.736450
 20
647.821838
 11
622.736450
 21
647.821838
  0
LINE
  8
LC-003-002-----0
 62
     1
  6
CONTINUOUS
 10
643.736450
 20
649.821838
 11
643.736450
 21
675.821838
  0
LINE
  8
LC-003-002-----0
 62
     1
  6
CONTINUOUS
 10
673.736450
 20
649.821838
 11
673.736450
 21
675.821838
  0
ENDSEC
  0
EOF
