  0
SECTION
  2
HEADER
  9
$LIMMIN
 10
182.607605
 20
477.117371
  9
$LIMMAX
 10
417.811127
 20
685.212952
  9
$EXTMIN
 10
182.607605
 20
477.117371
  9
$EXTMAX
 10
417.811127
 20
685.212952
  0
ENDSEC
  0
SECTION
  2
TABLES
  0
TABLE
  2
LTYPE
 70
     3
  0
LTYPE
  2
CONTINUOUS
 70
    64
  3
Ausgezogene Linie
 72
    65
 73
     0
 40
0.0
  0
LTYPE
  2
DASHED
 70
    64
  3
__ __ __ __ __ __ __ __ __ __ __ __ __ __ __
 72
    65
 73
     2
 40
0.75
 49
0.5
 49
-0.25
  0
LTYPE
  2
DASHDOT
 70
    64
  3
__ . __ . __ . __ . __ . __ . __ . __ . __ . __
 72
    65
 73
     4
 40
1.0
 49
0.5
 49
-0.25
 49
0.0
 49
-0.25
  0
ENDTAB
  0
TABLE
  2
LAYER
 70
     5
  0
LAYER
  2
LC-INFO-1-1-MM-A0-0
 70
    64
 62
     7
  6
CONTINUOUS
  0
LAYER
  2
LC-001-150-----0
 70
    64
 62
     7
  6
CONTINUOUS
  0
LAYER
  2
LC-002-021-SLN-3
 70
    64
 62
     7
  6
CONTINUOUS
  0
LAYER
  2
LC-003-002-----0
 70
    64
 62
     7
  6
CONTINUOUS
  0
LAYER
  2
LC-004-006-----0
 70
    64
 62
     7
  6
CONTINUOUS
  0
ENDTAB
  0
TABLE
  2
STYLE
 70
     1
  0
STYLE
  2
TXT8
 70
    64
 40
0.0
 41
1.0
 50
0.0
 71
     0
 42
3.500000
  3
TXT8
  4

  0
ENDTAB
  0
ENDSEC
  0
SECTION
  2
BLOCKS
  0
ENDSEC
  0
SECTION
  2
ENTITIES
  0
ARC
  8
LC-001-150-----0
 62
     1
  6
CONTINUOUS
 10
240.653336
 20
527.268616
 40
25.871294
 50
359.887861
 51
6.145483
  0
ARC
  8
LC-001-150-----0
 62
     1
  6
CONTINUOUS
 10
252.548447
 20
528.661377
 40
13.895889
 50
5.686550
 51
15.179488
  0
ARC
  8
LC-001-150-----0
 62
     1
  6
CONTINUOUS
 10
262.991882
 20
531.648865
 40
3.038209
 50
12.373087
 51
38.857865
  0
ARC
  8
LC-001-150-----0
 62
     1
  6
CONTINUOUS
 10
264.902039
 20
533.109558
 40
0.637278
 50
44.350218
 51
62.953164
  0
ARC
  8
LC-001-150-----0
 62
     1
  6
CONTINUOUS
 10
265.020264
 20
533.337646
 40
0.380367
 50
63.189925
 51
89.469372
  0
ARC
  8
LC-001-150-----0
 62
     1
  6
CONTINUOUS
 10
265.027313
 20
533.337646
 40
0.380367
 50
90.530626
 51
116.810073
  0
ARC
  8
LC-001-150-----0
 62
     1
  6
CONTINUOUS
 10
265.145538
 20
533.109558
 40
0.637278
 50
117.046834
 51
135.649784
  0
ARC
  8
LC-001-150-----0
 62
     1
  6
CONTINUOUS
 10
267.055695
 20
531.648865
 40
3.038209
 50
141.142130
 51
167.626912
  0
ARC
  8
LC-001-150-----0
 62
     1
  6
CONTINUOUS
 10
277.499115
 20
528.661377
 40
13.895889
 50
164.820511
 51
174.313449
  0
ARC
  8
LC-001-150-----0
 62
     1
  6
CONTINUOUS
 10
289.394226
 20
527.268616
 40
25.871294
 50
173.854515
 51
180.112133
  0
ARC
  8
LC-001-150-----0
 62
     1
  6
CONTINUOUS
 10
289.394226
 20
527.167358
 40
25.871294
 50
179.887867
 51
186.145485
  0
ARC
  8
LC-001-150-----0
 62
     1
  6
CONTINUOUS
 10
277.499115
 20
525.774658
 40
13.895889
 50
185.686551
 51
195.179489
  0
ARC
  8
LC-001-150-----0
 62
     1
  6
CONTINUOUS
 10
267.055695
 20
522.787109
 40
3.038209
 50
192.373088
 51
218.857870
  0
ARC
  8
LC-001-150-----0
 62
     1
  6
CONTINUOUS
 10
265.145538
 20
521.326477
 40
0.637278
 50
224.350216
 51
242.953166
  0
ARC
  8
LC-001-150-----0
 62
     1
  6
CONTINUOUS
 10
265.027313
 20
521.098328
 40
0.380367
 50
243.189927
 51
269.469374
  0
ARC
  8
LC-001-150-----0
 62
     1
  6
CONTINUOUS
 10
265.020264
 20
521.098328
 40
0.380367
 50
270.530628
 51
296.810075
  0
ARC
  8
LC-001-150-----0
 62
     1
  6
CONTINUOUS
 10
264.902039
 20
521.326477
 40
0.637278
 50
297.046836
 51
315.649782
  0
ARC
  8
LC-001-150-----0
 62
     1
  6
CONTINUOUS
 10
262.991882
 20
522.787109
 40
3.038209
 50
321.142135
 51
347.626913
  0
ARC
  8
LC-001-150-----0
 62
     1
  6
CONTINUOUS
 10
252.548447
 20
525.774658
 40
13.895889
 50
344.820512
 51
354.313450
  0
ARC
  8
LC-001-150-----0
 62
     1
  6
CONTINUOUS
 10
240.653336
 20
527.167358
 40
25.871294
 50
353.854517
 51
0.112139
  0
LINE
  8
LC-001-150-----0
 62
     1
  6
CONTINUOUS
 10
235.442230
 20
663.006348
 11
239.034485
 21
670.709961
  0
LINE
  8
LC-001-150-----0
 62
     1
  6
CONTINUOUS
 10
222.763687
 20
663.006348
 11
219.171432
 21
670.709961
  0
LINE
  8
LC-001-150-----0
 62
     1
  6
CONTINUOUS
 10
214.311325
 20
551.218018
 11
214.311325
 21
503.218018
  0
LINE
  8
LC-001-150-----0
 62
     1
  6
CONTINUOUS
 10
214.311325
 20
681.132507
 11
193.565384
 21
681.132507
  0
ARC
  8
LC-001-150-----0
 62
     1
  6
CONTINUOUS
 10
193.565384
 20
679.632507
 40
1.500000
 50
90.000003
 51
175.000006
  0
ARC
  8
LC-001-150-----0
 62
     1
  6
CONTINUOUS
 10
229.102951
 20
649.411743
 40
35.000000
 50
13.001287
 51
65.000001
  0
LINE
  8
LC-001-150-----0
 62
     1
  6
CONTINUOUS
 10
243.894592
 20
551.218018
 11
243.894592
 21
503.218018
  0
LINE
  8
LC-001-150-----0
 62
     1
  6
CONTINUOUS
 10
219.171432
 20
561.218018
 11
219.171432
 21
551.218018
  0
LINE
  8
LC-001-150-----0
 62
     1
  6
CONTINUOUS
 10
239.034485
 20
561.218018
 11
239.034485
 21
551.218018
  0
ARC
  8
LC-001-150-----0
 62
     1
  6
CONTINUOUS
 10
229.102951
 20
649.411743
 40
30.000000
 50
115.000004
 51
65.000001
  0
ARC
  8
LC-001-150-----0
 62
     1
  6
CONTINUOUS
 10
229.102951
 20
649.411743
 40
23.500000
 50
115.000004
 51
65.000001
  0
ARC
  8
LC-001-150-----0
 62
     1
  6
CONTINUOUS
 10
229.102951
 20
649.411743
 40
21.000000
 50
115.000004
 51
65.000001
  0
LINE
  8
LC-001-150-----0
 62
     1
  6
CONTINUOUS
 10
219.171432
 20
670.709961
 11
214.311325
 21
681.132507
  0
LINE
  8
LC-001-150-----0
 62
     1
  6
CONTINUOUS
 10
239.034485
 20
670.709961
 11
243.894592
 21
681.132507
  0
LINE
  8
LC-001-150-----0
 62
     1
  6
CONTINUOUS
 10
222.763687
 20
561.218018
 11
222.763687
 21
493.218018
  0
LINE
  8
LC-001-150-----0
 62
     1
  6
CONTINUOUS
 10
235.442230
 20
561.218018
 11
235.442230
 21
493.218018
  0
LINE
  8
LC-001-150-----0
 62
     1
  6
CONTINUOUS
 10
219.171432
 20
551.218018
 11
219.171432
 21
503.218018
  0
LINE
  8
LC-001-150-----0
 62
     1
  6
CONTINUOUS
 10
219.171432
 20
503.218018
 11
219.171432
 21
493.218018
  0
LINE
  8
LC-001-150-----0
 62
     1
  6
CONTINUOUS
 10
239.034485
 20
551.218018
 11
239.034485
 21
503.218018
  0
LINE
  8
LC-001-150-----0
 62
     1
  6
CONTINUOUS
 10
239.034485
 20
503.218018
 11
239.034485
 21
493.218018
  0
LINE
  8
LC-001-150-----0
 62
     1
  6
CONTINUOUS
 10
187.102951
 20
537.218018
 11
214.311325
 21
537.218018
  0
LINE
  8
LC-001-150-----0
 62
     1
  6
CONTINUOUS
 10
243.894592
 20
537.218018
 11
271.102966
 21
537.218018
  0
LINE
  8
LC-001-150-----0
 62
     1
  6
CONTINUOUS
 10
187.102951
 20
517.218018
 11
214.311325
 21
517.218018
  0
LINE
  8
LC-001-150-----0
 62
     1
  6
CONTINUOUS
 10
243.894592
 20
517.218018
 11
271.102966
 21
517.218018
  0
LINE
  8
LC-001-150-----0
 62
     1
  6
CONTINUOUS
 10
200.602951
 20
551.218018
 11
214.311325
 21
551.218018
  0
LINE
  8
LC-003-002-----0
 62
     2
  6
DASHED
 10
214.311325
 20
551.218018
 11
239.034485
 21
551.218018
  0
LINE
  8
LC-001-150-----0
 62
     1
  6
CONTINUOUS
 10
239.034485
 20
551.218018
 11
257.602966
 21
551.218018
  0
LINE
  8
LC-001-150-----0
 62
     1
  6
CONTINUOUS
 10
200.602951
 20
503.218018
 11
214.311325
 21
503.218018
  0
LINE
  8
LC-003-002-----0
 62
     2
  6
DASHED
 10
214.311325
 20
503.218018
 11
239.034485
 21
503.218018
  0
LINE
  8
LC-001-150-----0
 62
     1
  6
CONTINUOUS
 10
239.034485
 20
503.218018
 11
257.602966
 21
503.218018
  0
LINE
  8
LC-003-002-----0
 62
     2
  6
DASHED
 10
258.802948
 20
655.911743
 11
263.522980
 21
655.911743
  0
LINE
  8
LC-003-002-----0
 62
     2
  6
DASHED
 10
258.802948
 20
642.911743
 11
266.524597
 21
642.911743
  0
LINE
  8
LC-003-002-----0
 62
     2
  6
DASHED
 10
258.302948
 20
647.411743
 11
252.802979
 21
647.411743
  0
LINE
  8
LC-001-150-----0
 62
     1
  6
CONTINUOUS
 10
187.102951
 20
622.911743
 11
187.102951
 21
614.411743
  0
LINE
  8
LC-001-150-----0
 62
     1
  6
CONTINUOUS
 10
187.102951
 20
614.411743
 11
271.102966
 21
614.411743
  0
LINE
  8
LC-001-150-----0
 62
     1
  6
CONTINUOUS
 10
188.602951
 20
624.411743
 11
208.126785
 21
624.411743
  0
LINE
  8
LC-002-021-SLN-3
 62
     2
  6
DASHDOT
 10
263.102966
 20
627.965393
 11
263.102966
 21
610.701660
  0
LINE
  8
LC-002-021-SLN-3
 62
     2
  6
DASHDOT
 10
194.710510
 20
649.411743
 11
266.752106
 21
649.411743
  0
LINE
  8
LC-002-021-SLN-3
 62
     2
  6
DASHDOT
 10
229.102951
 20
684.465637
 11
229.102951
 21
610.701660
  0
LINE
  8
LC-001-150-----0
 62
     1
  6
CONTINUOUS
 10
271.102966
 20
622.911743
 11
271.102966
 21
614.411743
  0
ARC
  8
LC-001-150-----0
 62
     1
  6
CONTINUOUS
 10
188.602951
 20
622.911743
 40
1.500000
 50
90.000003
 51
180.000009
  0
ARC
  8
LC-001-150-----0
 62
     1
  6
CONTINUOUS
 10
269.602966
 20
622.911743
 40
1.500000
 50
0.000000
 51
90.000003
  0
CIRCLE
  8
LC-001-150-----0
 62
     1
  6
CONTINUOUS
 10
229.102951
 20
649.411743
 40
15.000000
  0
LINE
  8
LC-001-150-----0
 62
     1
  6
CONTINUOUS
 10
334.567261
 20
614.411743
 11
394.567261
 21
614.411743
  0
LINE
  8
LC-001-150-----0
 62
     1
  6
CONTINUOUS
 10
271.064514
 20
623.249207
 11
263.205719
 21
657.285767
  0
LINE
  8
LC-001-150-----0
 62
     1
  6
CONTINUOUS
 10
187.108658
 20
623.042480
 11
192.071091
 21
679.763245
  0
LINE
  8
LC-003-002-----0
 62
     2
  6
DASHED
 10
266.402954
 20
624.411743
 11
266.402954
 21
614.411743
  0
LINE
  8
LC-003-002-----0
 62
     2
  6
DASHED
 10
259.802948
 20
624.411743
 11
259.802948
 21
614.411743
  0
LINE
  8
LC-002-021-SLN-3
 62
     2
  6
DASHDOT
 10
195.102951
 20
627.965393
 11
195.102951
 21
610.701660
  0
LINE
  8
LC-003-002-----0
 62
     2
  6
DASHED
 10
191.802963
 20
624.411743
 11
191.802963
 21
614.411743
  0
LINE
  8
LC-003-002-----0
 62
     2
  6
DASHED
 10
198.402954
 20
624.411743
 11
198.402954
 21
614.411743
  0
LINE
  8
LC-001-150-----0
 62
     1
  6
CONTINUOUS
 10
332.067261
 20
670.709961
 11
340.567261
 21
670.709961
  0
LINE
  8
LC-001-150-----0
 62
     1
  6
CONTINUOUS
 10
332.067261
 20
625.911743
 11
340.567261
 21
625.911743
  0
LINE
  8
LC-001-150-----0
 62
     1
  6
CONTINUOUS
 10
398.567261
 20
627.411743
 11
398.567261
 21
669.209961
  0
LINE
  8
LC-001-150-----0
 62
     1
  6
CONTINUOUS
 10
330.567261
 20
627.411743
 11
330.567261
 21
669.209961
  0
ARC
  8
LC-001-150-----0
 62
     1
  6
CONTINUOUS
 10
332.067261
 20
669.209961
 40
1.500000
 50
90.000003
 51
180.000009
  0
ARC
  8
LC-001-150-----0
 62
     1
  6
CONTINUOUS
 10
332.067261
 20
627.411743
 40
1.500000
 50
180.000009
 51
269.999997
  0
LINE
  8
LC-001-150-----0
 62
     1
  6
CONTINUOUS
 10
250.079132
 20
624.411743
 11
269.602966
 21
624.411743
  0
ARC
  8
LC-001-150-----0
 62
     1
  6
CONTINUOUS
 10
250.079132
 20
625.911743
 40
1.500000
 50
131.752204
 51
269.999997
  0
ARC
  8
LC-001-150-----0
 62
     1
  6
CONTINUOUS
 10
208.126785
 20
625.911743
 40
1.500000
 50
269.999997
 51
48.247794
  0
LINE
  8
LC-001-150-----0
 62
     1
  6
CONTINUOUS
 10
394.567261
 20
614.411743
 11
394.567261
 21
622.911743
  0
LINE
  8
LC-001-150-----0
 62
     1
  6
CONTINUOUS
 10
334.567261
 20
614.411743
 11
334.567261
 21
622.911743
  0
LINE
  8
LC-002-021-SLN-3
 62
     2
  6
DASHDOT
 10
364.567261
 20
610.701660
 11
364.567261
 21
685.212952
  0
LINE
  8
LC-001-150-----0
 62
     1
  6
CONTINUOUS
 10
336.067261
 20
624.411743
 11
393.067261
 21
624.411743
  0
ARC
  8
LC-001-150-----0
 62
     1
  6
CONTINUOUS
 10
336.067261
 20
622.911743
 40
1.500000
 50
90.000003
 51
180.000009
  0
ARC
  8
LC-001-150-----0
 62
     1
  6
CONTINUOUS
 10
393.067261
 20
622.911743
 40
1.500000
 50
0.000000
 51
90.000003
  0
LINE
  8
LC-001-150-----0
 62
     1
  6
CONTINUOUS
 10
388.567261
 20
625.911743
 11
388.567261
 21
679.632507
  0
LINE
  8
LC-001-150-----0
 62
     1
  6
CONTINUOUS
 10
340.567261
 20
625.911743
 11
340.567261
 21
679.632507
  0
LINE
  8
LC-001-150-----0
 62
     1
  6
CONTINUOUS
 10
374.567261
 20
625.911743
 11
374.567261
 21
679.632507
  0
ARC
  8
LC-001-150-----0
 62
     1
  6
CONTINUOUS
 10
342.067261
 20
679.632507
 40
1.500000
 50
90.000003
 51
180.000009
  0
ARC
  8
LC-001-150-----0
 62
     1
  6
CONTINUOUS
 10
387.067261
 20
679.632507
 40
1.500000
 50
0.000000
 51
90.000003
  0
ARC
  8
LC-001-150-----0
 62
     1
  6
CONTINUOUS
 10
339.067261
 20
625.911743
 40
1.500000
 50
269.999997
 51
0.000000
  0
ARC
  8
LC-001-150-----0
 62
     1
  6
CONTINUOUS
 10
390.067261
 20
625.911743
 40
1.500000
 50
180.000009
 51
269.999997
  0
LINE
  8
LC-001-150-----0
 62
     1
  6
CONTINUOUS
 10
354.567261
 20
625.911743
 11
354.567261
 21
679.632507
  0
ARC
  8
LC-001-150-----0
 62
     1
  6
CONTINUOUS
 10
356.067261
 20
679.632507
 40
1.500000
 50
90.000003
 51
180.000009
  0
ARC
  8
LC-001-150-----0
 62
     1
  6
CONTINUOUS
 10
373.067261
 20
679.632507
 40
1.500000
 50
0.000000
 51
90.000003
  0
ARC
  8
LC-001-150-----0
 62
     1
  6
CONTINUOUS
 10
353.067261
 20
625.911743
 40
1.500000
 50
269.999997
 51
0.000000
  0
ARC
  8
LC-001-150-----0
 62
     1
  6
CONTINUOUS
 10
376.067261
 20
625.911743
 40
1.500000
 50
180.000009
 51
269.999997
  0
LINE
  8
LC-001-150-----0
 62
     1
  6
CONTINUOUS
 10
342.067261
 20
681.132507
 11
387.067261
 21
681.132507
  0
ARC
  8
LC-001-150-----0
 62
     1
  6
CONTINUOUS
 10
397.067261
 20
627.411743
 40
1.500000
 50
269.999997
 51
0.000000
  0
ARC
  8
LC-001-150-----0
 62
     1
  6
CONTINUOUS
 10
397.067261
 20
669.209961
 40
1.500000
 50
0.000000
 51
90.000003
  0
LINE
  8
LC-003-002-----0
 62
     2
  6
DASHED
 10
340.567261
 20
670.709961
 11
388.567261
 21
670.709961
  0
LINE
  8
LC-001-150-----0
 62
     1
  6
CONTINUOUS
 10
388.567261
 20
670.709961
 11
397.067261
 21
670.709961
  0
LINE
  8
LC-003-002-----0
 62
     2
  6
DASHED
 10
340.567261
 20
625.911743
 11
388.567261
 21
625.911743
  0
LINE
  8
LC-001-150-----0
 62
     1
  6
CONTINUOUS
 10
388.567261
 20
625.911743
 11
397.067261
 21
625.911743
  0
LINE
  8
LC-002-021-SLN-3
 62
     2
  6
DASHDOT
 10
309.079071
 20
649.411743
 11
417.811127
 21
649.411743
  0
LINE
  8
LC-001-150-----0
 62
     1
  6
CONTINUOUS
 10
313.631714
 20
664.411743
 11
330.567261
 21
664.411743
  0
LINE
  8
LC-004-006-----0
 62
     2
  6
CONTINUOUS
 10
415.220154
 20
634.411743
 11
415.504211
 21
641.442017
  0
LINE
  8
LC-004-006-----0
 62
     2
  6
CONTINUOUS
 10
415.504211
 20
641.442017
 11
414.036163
 21
652.603394
  0
LINE
  8
LC-004-006-----0
 62
     2
  6
CONTINUOUS
 10
414.036163
 20
652.603394
 11
414.551605
 21
664.411743
  0
LINE
  8
LC-004-006-----0
 62
     2
  6
CONTINUOUS
 10
313.116638
 20
634.411743
 11
314.096222
 21
641.442017
  0
LINE
  8
LC-004-006-----0
 62
     2
  6
CONTINUOUS
 10
314.096222
 20
641.442017
 11
313.257355
 21
656.945374
  0
LINE
  8
LC-004-006-----0
 62
     2
  6
CONTINUOUS
 10
313.257355
 20
656.945374
 11
313.631714
 21
664.411743
  0
LINE
  8
LC-003-002-----0
 62
     2
  6
DASHED
 10
330.567261
 20
664.411743
 11
398.567261
 21
664.411743
  0
LINE
  8
LC-001-150-----0
 62
     1
  6
CONTINUOUS
 10
313.116638
 20
634.411743
 11
330.567261
 21
634.411743
  0
LINE
  8
LC-003-002-----0
 62
     2
  6
DASHED
 10
330.567261
 20
634.411743
 11
398.567261
 21
634.411743
  0
LINE
  8
LC-001-150-----0
 62
     1
  6
CONTINUOUS
 10
398.567261
 20
634.411743
 11
415.220154
 21
634.411743
  0
LINE
  8
LC-001-150-----0
 62
     1
  6
CONTINUOUS
 10
398.567261
 20
664.411743
 11
414.551605
 21
664.411743
  0
LINE
  8
LC-002-021-SLN-3
 62
     2
  6
DASHDOT
 10
342.067261
 20
627.965393
 11
342.067261
 21
610.701660
  0
LINE
  8
LC-002-021-SLN-3
 62
     2
  6
DASHDOT
 10
387.067261
 20
627.965393
 11
387.067261
 21
610.701660
  0
LINE
  8
LC-003-002-----0
 62
     2
  6
DASHED
 10
390.367249
 20
624.411743
 11
390.367249
 21
614.411743
  0
LINE
  8
LC-003-002-----0
 62
     2
  6
DASHED
 10
383.767242
 20
624.411743
 11
383.767242
 21
614.411743
  0
LINE
  8
LC-001-150-----0
 62
     1
  6
CONTINUOUS
 10
187.102951
 20
555.718018
 11
187.102951
 21
498.718018
  0
LINE
  8
LC-003-002-----0
 62
     2
  6
DASHED
 10
338.767242
 20
624.411743
 11
338.767242
 21
614.411743
  0
LINE
  8
LC-003-002-----0
 62
     2
  6
DASHED
 10
345.367249
 20
624.411743
 11
345.367249
 21
614.411743
  0
LINE
  8
LC-001-150-----0
 62
     1
  6
CONTINUOUS
 10
188.602951
 20
497.218018
 11
205.602951
 21
497.218018
  0
LINE
  8
LC-001-150-----0
 62
     1
  6
CONTINUOUS
 10
271.102966
 20
555.718018
 11
271.102966
 21
498.718018
  0
LINE
  8
LC-001-150-----0
 62
     1
  6
CONTINUOUS
 10
188.602951
 20
557.218018
 11
205.602951
 21
557.218018
  0
LINE
  8
LC-002-021-SLN-3
 62
     2
  6
DASHDOT
 10
182.607605
 20
527.218018
 11
268.973053
 21
527.218018
  0
ARC
  8
LC-001-150-----0
 62
     1
  6
CONTINUOUS
 10
188.602951
 20
555.718018
 40
1.500000
 50
90.000003
 51
180.000009
  0
ARC
  8
LC-001-150-----0
 62
     1
  6
CONTINUOUS
 10
188.602951
 20
498.718018
 40
1.500000
 50
180.000009
 51
269.999997
  0
ARC
  8
LC-001-150-----0
 62
     1
  6
CONTINUOUS
 10
269.602966
 20
498.718018
 40
1.500000
 50
269.999997
 51
0.000000
  0
ARC
  8
LC-001-150-----0
 62
     1
  6
CONTINUOUS
 10
269.602966
 20
555.718018
 40
1.500000
 50
0.000000
 51
90.000003
  0
LINE
  8
LC-002-021-SLN-3
 62
     2
  6
DASHDOT
 10
229.102951
 20
575.467468
 11
229.102951
 21
477.117371
  0
LINE
  8
LC-001-150-----0
 62
     1
  6
CONTINUOUS
 10
192.071091
 20
535.718018
 11
192.071091
 21
518.718018
  0
ARC
  8
LC-001-150-----0
 62
     1
  6
CONTINUOUS
 10
193.571091
 20
518.718018
 40
1.500000
 50
180.000009
 51
269.999997
  0
ARC
  8
LC-001-150-----0
 62
     1
  6
CONTINUOUS
 10
193.571091
 20
535.718018
 40
1.500000
 50
90.000003
 51
180.000009
  0
LINE
  8
LC-001-150-----0
 62
     1
  6
CONTINUOUS
 10
199.102951
 20
549.718018
 11
199.102951
 21
538.718018
  0
LINE
  8
LC-001-150-----0
 62
     1
  6
CONTINUOUS
 10
259.102966
 20
549.718018
 11
259.102966
 21
538.718018
  0
ARC
  8
LC-001-150-----0
 62
     1
  6
CONTINUOUS
 10
200.602951
 20
549.718018
 40
1.500000
 50
90.000003
 51
180.000009
  0
ARC
  8
LC-001-150-----0
 62
     1
  6
CONTINUOUS
 10
257.602966
 20
549.718018
 40
1.500000
 50
0.000000
 51
90.000003
  0
ARC
  8
LC-001-150-----0
 62
     1
  6
CONTINUOUS
 10
257.602966
 20
504.718018
 40
1.500000
 50
269.999997
 51
0.000000
  0
ARC
  8
LC-001-150-----0
 62
     1
  6
CONTINUOUS
 10
200.602951
 20
504.718018
 40
1.500000
 50
180.000009
 51
269.999997
  0
LINE
  8
LC-001-150-----0
 62
     1
  6
CONTINUOUS
 10
199.102951
 20
515.718018
 11
199.102951
 21
504.718018
  0
LINE
  8
LC-001-150-----0
 62
     1
  6
CONTINUOUS
 10
259.102966
 20
515.718018
 11
259.102966
 21
504.718018
  0
LINE
  8
LC-002-021-SLN-3
 62
     2
  6
DASHDOT
 10
195.102951
 20
554.828369
 11
195.102951
 21
544.090027
  0
LINE
  8
LC-002-021-SLN-3
 62
     2
  6
DASHDOT
 10
190.139328
 20
549.718018
 11
200.739441
 21
549.718018
  0
CIRCLE
  8
LC-001-150-----0
 62
     1
  6
CONTINUOUS
 10
195.102951
 20
549.718018
 40
3.300000
  0
LINE
  8
LC-002-021-SLN-3
 62
     2
  6
DASHDOT
 10
195.102951
 20
499.607635
 11
195.102951
 21
510.345978
  0
LINE
  8
LC-002-021-SLN-3
 62
     2
  6
DASHDOT
 10
190.139328
 20
504.718018
 11
200.739441
 21
504.718018
  0
CIRCLE
  8
LC-001-150-----0
 62
     1
  6
CONTINUOUS
 10
195.102951
 20
504.718018
 40
3.300000
  0
LINE
  8
LC-002-021-SLN-3
 62
     2
  6
DASHDOT
 10
263.102966
 20
554.828369
 11
263.102966
 21
544.090027
  0
LINE
  8
LC-002-021-SLN-3
 62
     2
  6
DASHDOT
 10
268.066589
 20
549.718018
 11
257.466461
 21
549.718018
  0
CIRCLE
  8
LC-001-150-----0
 62
     1
  6
CONTINUOUS
 10
263.102966
 20
549.718018
 40
3.300000
  0
LINE
  8
LC-002-021-SLN-3
 62
     2
  6
DASHDOT
 10
263.102966
 20
499.607635
 11
263.102966
 21
510.345978
  0
LINE
  8
LC-002-021-SLN-3
 62
     2
  6
DASHDOT
 10
268.066589
 20
504.718018
 11
257.466461
 21
504.718018
  0
CIRCLE
  8
LC-001-150-----0
 62
     1
  6
CONTINUOUS
 10
263.102966
 20
504.718018
 40
3.300000
  0
LINE
  8
LC-001-150-----0
 62
     1
  6
CONTINUOUS
 10
207.102951
 20
561.218018
 11
251.102951
 21
561.218018
  0
LINE
  8
LC-001-150-----0
 62
     1
  6
CONTINUOUS
 10
207.102951
 20
493.218018
 11
251.102951
 21
493.218018
  0
ARC
  8
LC-001-150-----0
 62
     1
  6
CONTINUOUS
 10
207.102951
 20
494.718018
 40
1.500000
 50
180.000009
 51
269.999997
  0
ARC
  8
LC-001-150-----0
 62
     1
  6
CONTINUOUS
 10
251.102951
 20
494.718018
 40
1.500000
 50
269.999997
 51
0.000000
  0
ARC
  8
LC-001-150-----0
 62
     1
  6
CONTINUOUS
 10
251.102951
 20
559.718018
 40
1.500000
 50
0.000000
 51
90.000003
  0
ARC
  8
LC-001-150-----0
 62
     1
  6
CONTINUOUS
 10
207.102951
 20
559.718018
 40
1.500000
 50
90.000003
 51
180.000009
  0
LINE
  8
LC-003-002-----0
 62
     2
  6
DASHED
 10
205.602951
 20
557.218018
 11
252.602951
 21
557.218018
  0
LINE
  8
LC-001-150-----0
 62
     1
  6
CONTINUOUS
 10
252.602951
 20
557.218018
 11
269.602966
 21
557.218018
  0
LINE
  8
LC-003-002-----0
 62
     2
  6
DASHED
 10
205.602951
 20
497.218018
 11
252.602951
 21
497.218018
  0
LINE
  8
LC-001-150-----0
 62
     1
  6
CONTINUOUS
 10
252.602951
 20
497.218018
 11
269.602966
 21
497.218018
  0
LINE
  8
LC-001-150-----0
 62
     1
  6
CONTINUOUS
 10
205.602951
 20
559.718018
 11
205.602951
 21
551.218018
  0
LINE
  8
LC-003-002-----0
 62
     2
  6
DASHED
 10
205.602951
 20
551.218018
 11
205.602951
 21
503.218018
  0
LINE
  8
LC-001-150-----0
 62
     1
  6
CONTINUOUS
 10
252.602951
 20
559.718018
 11
252.602951
 21
551.218018
  0
LINE
  8
LC-003-002-----0
 62
     2
  6
DASHED
 10
252.602951
 20
551.218018
 11
252.602951
 21
503.218018
  0
LINE
  8
LC-001-150-----0
 62
     1
  6
CONTINUOUS
 10
205.602951
 20
503.218018
 11
205.602951
 21
494.718018
  0
LINE
  8
LC-001-150-----0
 62
     1
  6
CONTINUOUS
 10
252.602951
 20
503.218018
 11
252.602951
 21
494.718018
  0
LINE
  8
LC-001-150-----0
 62
     1
  6
CONTINUOUS
 10
214.102951
 20
571.653870
 11
214.102951
 21
561.218018
  0
LINE
  8
LC-001-150-----0
 62
     1
  6
CONTINUOUS
 10
244.102951
 20
572.063049
 11
244.102951
 21
561.218018
  0
LINE
  8
LC-004-006-----0
 62
     2
  6
CONTINUOUS
 10
214.102951
 20
571.653870
 11
222.689682
 21
571.418396
  0
LINE
  8
LC-004-006-----0
 62
     2
  6
CONTINUOUS
 10
222.689682
 20
571.418396
 11
237.947052
 21
572.974060
  0
LINE
  8
LC-004-006-----0
 62
     2
  6
CONTINUOUS
 10
237.947052
 20
572.974060
 11
244.102951
 21
572.063049
  0
LINE
  8
LC-004-006-----0
 62
     2
  6
CONTINUOUS
 10
214.102951
 20
481.162476
 11
221.987320
 21
480.228699
  0
LINE
  8
LC-004-006-----0
 62
     2
  6
CONTINUOUS
 10
221.987320
 20
480.228699
 11
237.536438
 21
481.369537
  0
LINE
  8
LC-004-006-----0
 62
     2
  6
CONTINUOUS
 10
237.536438
 20
481.369537
 11
244.102951
 21
481.069122
  0
LINE
  8
LC-001-150-----0
 62
     1
  6
CONTINUOUS
 10
214.102951
 20
493.218018
 11
214.102951
 21
481.162476
  0
LINE
  8
LC-001-150-----0
 62
     1
  6
CONTINUOUS
 10
244.102951
 20
493.218018
 11
244.102951
 21
481.069122
  0
LINE
  8
LC-003-002-----0
 62
     2
  6
DASHED
 10
244.102951
 20
561.218018
 11
244.102951
 21
493.218018
  0
LINE
  8
LC-003-002-----0
 62
     2
  6
DASHED
 10
214.102951
 20
561.218018
 11
214.102951
 21
493.218018
  0
LINE
  8
LC-003-002-----0
 62
     2
  6
DASHED
 10
258.302948
 20
651.411743
 11
252.802979
 21
651.411743
  0
ARC
  8
LC-001-150-----0
 62
     1
  6
CONTINUOUS
 10
197.602951
 20
538.718018
 40
1.500000
 50
269.999997
 51
0.000000
  0
ARC
  8
LC-001-150-----0
 62
     1
  6
CONTINUOUS
 10
197.602951
 20
515.718018
 40
1.500000
 50
0.000000
 51
90.000003
  0
ARC
  8
LC-001-150-----0
 62
     1
  6
CONTINUOUS
 10
260.602966
 20
515.718018
 40
1.500000
 50
90.000003
 51
180.000009
  0
ARC
  8
LC-001-150-----0
 62
     1
  6
CONTINUOUS
 10
260.602966
 20
538.718018
 40
1.500000
 50
180.000009
 51
269.999997
  0
LINE
  8
LC-003-002-----0
 62
     2
  6
DASHED
 10
253.052963
 20
646.911743
 11
258.302948
 21
646.911743
  0
LINE
  8
LC-003-002-----0
 62
     2
  6
DASHED
 10
258.302948
 20
651.911743
 11
253.052979
 21
651.911743
  0
ARC
  8
LC-003-002-----0
 62
     2
  6
DASHED
 10
249.952957
 20
650.911743
 40
0.250000
 50
90.000003
 51
180.000009
  0
ARC
  8
LC-003-002-----0
 62
     2
  6
DASHED
 10
249.952957
 20
647.911743
 40
0.250000
 50
180.000009
 51
269.999997
  0
LINE
  8
LC-003-002-----0
 62
     2
  6
DASHED
 10
252.802963
 20
651.161743
 11
249.952957
 21
651.161743
  0
LINE
  8
LC-003-002-----0
 62
     2
  6
DASHED
 10
258.802948
 20
651.611755
 11
258.302948
 21
651.611755
  0
LINE
  8
LC-003-002-----0
 62
     2
  6
DASHED
 10
258.802948
 20
647.211731
 11
258.302948
 21
647.211731
  0
LINE
  8
LC-003-002-----0
 62
     2
  6
DASHED
 10
258.302948
 20
651.911743
 11
258.302948
 21
646.911743
  0
ARC
  8
LC-003-002-----0
 62
     2
  6
DASHED
 10
258.802948
 20
646.861755
 40
1.999103
 50
337.965286
 51
22.034714
  0
LINE
  8
LC-003-002-----0
 62
     2
  6
DASHED
 10
252.802963
 20
647.661743
 11
249.952957
 21
647.661743
  0
ARC
  8
LC-003-002-----0
 62
     2
  6
DASHED
 10
258.802948
 20
651.961731
 40
1.999103
 50
337.965286
 51
22.034714
  0
ARC
  8
LC-003-002-----0
 62
     2
  6
DASHED
 10
249.702957
 20
649.411743
 40
11.100000
 50
350.667582
 51
9.332418
  0
LINE
  8
LC-003-002-----0
 62
     2
  6
DASHED
 10
252.802963
 20
651.661743
 11
252.802963
 21
647.161743
  0
LINE
  8
LC-003-002-----0
 62
     2
  6
DASHED
 10
260.656036
 20
651.211731
 11
258.802948
 21
651.211731
  0
LINE
  8
LC-003-002-----0
 62
     2
  6
DASHED
 10
260.656036
 20
647.611755
 11
258.802948
 21
647.611755
  0
LINE
  8
LC-003-002-----0
 62
     2
  6
DASHED
 10
260.656036
 20
652.711731
 11
258.802948
 21
652.711731
  0
LINE
  8
LC-003-002-----0
 62
     2
  6
DASHED
 10
260.656036
 20
646.111755
 11
258.802948
 21
646.111755
  0
LINE
  8
LC-003-002-----0
 62
     2
  6
DASHED
 10
249.702957
 20
650.911743
 11
249.702957
 21
647.911743
  0
LINE
  8
LC-003-002-----0
 62
     2
  6
DASHED
 10
258.802948
 20
655.911743
 11
258.802948
 21
642.911743
  0
LINE
  8
LC-003-002-----0
 62
     2
  6
DASHED
 10
253.052963
 20
651.911743
 11
253.052963
 21
646.911743
  0
LINE
  8
LC-003-002-----0
 62
     2
  6
DASHED
 10
253.052963
 20
651.911743
 11
252.802963
 21
651.661743
  0
LINE
  8
LC-003-002-----0
 62
     2
  6
DASHED
 10
252.802963
 20
647.161743
 11
253.052963
 21
646.911743
  0
LINE
  8
LC-003-002-----0
 62
     2
  6
DASHED
 10
260.802948
 20
651.961731
 11
260.802948
 21
646.861755
  0
CIRCLE
  8
LC-003-002-----0
 62
     2
  6
DASHED
 10
364.567261
 20
649.411743
 40
6.500000
  0
LINE
  8
LC-003-002-----0
 62
     2
  6
DASHED
 10
361.707245
 20
651.062988
 11
364.567261
 21
652.714172
  0
LINE
  8
LC-003-002-----0
 62
     2
  6
DASHED
 10
364.567261
 20
646.109314
 11
367.427246
 21
647.760498
  0
LINE
  8
LC-003-002-----0
 62
     2
  6
DASHED
 10
361.707245
 20
647.760498
 11
361.707245
 21
651.062988
  0
LINE
  8
LC-003-002-----0
 62
     2
  6
DASHED
 10
367.427246
 20
647.760498
 11
367.427246
 21
651.062988
  0
LINE
  8
LC-003-002-----0
 62
     2
  6
DASHED
 10
364.567261
 20
646.109314
 11
361.707245
 21
647.760498
  0
LINE
  8
LC-003-002-----0
 62
     2
  6
DASHED
 10
367.427246
 20
651.062988
 11
364.567261
 21
652.714172
  0
CIRCLE
  8
LC-003-002-----0
 62
     2
  6
DASHED
 10
364.567261
 20
649.411743
 40
2.860000
  0
LINE
  8
LC-003-002-----0
 62
     2
  6
DASHED
 10
258.802948
 20
520.718018
 11
265.023773
 21
520.718018
  0
LINE
  8
LC-003-002-----0
 62
     2
  6
DASHED
 10
258.302948
 20
525.218018
 11
252.802979
 21
525.218018
  0
LINE
  8
LC-003-002-----0
 62
     2
  6
DASHED
 10
258.302948
 20
529.218018
 11
252.802979
 21
529.218018
  0
LINE
  8
LC-003-002-----0
 62
     2
  6
DASHED
 10
253.052963
 20
524.718018
 11
258.302948
 21
524.718018
  0
LINE
  8
LC-003-002-----0
 62
     2
  6
DASHED
 10
258.302948
 20
529.718018
 11
253.052979
 21
529.718018
  0
ARC
  8
LC-003-002-----0
 62
     2
  6
DASHED
 10
249.952957
 20
528.718018
 40
0.250000
 50
90.000003
 51
180.000009
  0
ARC
  8
LC-003-002-----0
 62
     2
  6
DASHED
 10
249.952957
 20
525.718018
 40
0.250000
 50
180.000009
 51
269.999997
  0
LINE
  8
LC-003-002-----0
 62
     2
  6
DASHED
 10
252.802963
 20
528.968018
 11
249.952957
 21
528.968018
  0
LINE
  8
LC-003-002-----0
 62
     2
  6
DASHED
 10
258.802948
 20
529.418030
 11
258.302948
 21
529.418030
  0
LINE
  8
LC-003-002-----0
 62
     2
  6
DASHED
 10
258.802948
 20
525.018005
 11
258.302948
 21
525.018005
  0
LINE
  8
LC-003-002-----0
 62
     2
  6
DASHED
 10
258.302948
 20
529.718018
 11
258.302948
 21
524.718018
  0
ARC
  8
LC-003-002-----0
 62
     2
  6
DASHED
 10
258.802948
 20
524.668030
 40
1.999103
 50
337.965286
 51
22.034714
  0
LINE
  8
LC-003-002-----0
 62
     2
  6
DASHED
 10
252.802963
 20
525.468018
 11
249.952957
 21
525.468018
  0
ARC
  8
LC-003-002-----0
 62
     2
  6
DASHED
 10
258.802948
 20
529.768005
 40
1.999103
 50
337.965286
 51
22.034714
  0
ARC
  8
LC-003-002-----0
 62
     2
  6
DASHED
 10
249.702957
 20
527.218018
 40
11.100000
 50
350.667582
 51
9.332418
  0
LINE
  8
LC-003-002-----0
 62
     2
  6
DASHED
 10
252.802963
 20
529.468018
 11
252.802963
 21
524.968018
  0
LINE
  8
LC-003-002-----0
 62
     2
  6
DASHED
 10
260.656036
 20
529.018005
 11
258.802948
 21
529.018005
  0
LINE
  8
LC-003-002-----0
 62
     2
  6
DASHED
 10
260.656036
 20
525.418030
 11
258.802948
 21
525.418030
  0
LINE
  8
LC-003-002-----0
 62
     2
  6
DASHED
 10
260.656036
 20
530.518005
 11
258.802948
 21
530.518005
  0
LINE
  8
LC-003-002-----0
 62
     2
  6
DASHED
 10
260.656036
 20
523.918030
 11
258.802948
 21
523.918030
  0
LINE
  8
LC-003-002-----0
 62
     2
  6
DASHED
 10
260.802948
 20
529.768005
 11
260.802948
 21
524.668030
  0
LINE
  8
LC-003-002-----0
 62
     2
  6
DASHED
 10
258.802948
 20
533.718018
 11
258.802948
 21
520.718018
  0
LINE
  8
LC-003-002-----0
 62
     2
  6
DASHED
 10
253.052963
 20
529.718018
 11
253.052963
 21
524.718018
  0
LINE
  8
LC-003-002-----0
 62
     2
  6
DASHED
 10
253.052963
 20
529.718018
 11
252.802963
 21
529.468018
  0
LINE
  8
LC-003-002-----0
 62
     2
  6
DASHED
 10
252.802963
 20
524.968018
 11
253.052963
 21
524.718018
  0
LINE
  8
LC-003-002-----0
 62
     2
  6
DASHED
 10
249.702957
 20
528.718018
 11
249.702957
 21
525.718018
  0
LINE
  8
LC-003-002-----0
 62
     2
  6
DASHED
 10
258.802948
 20
533.718018
 11
265.023773
 21
533.718018
  0
ENDSEC
  0
EOF
