  0
SECTION
  2
HEADER
  9
$LIMMIN
 10
185.076675
 20
205.881516
  9
$LIMMAX
 10
445.409821
 20
453.283295
  9
$EXTMIN
 10
185.076675
 20
205.881516
  9
$EXTMAX
 10
445.409821
 20
453.283295
  0
ENDSEC
  0
SECTION
  2
TABLES
  0
TABLE
  2
LTYPE
 70
     3
  0
LTYPE
  2
CONTINUOUS
 70
    64
  3
Ausgezogene Linie
 72
    65
 73
     0
 40
0.0
  0
LTYPE
  2
DASHED
 70
    64
  3
__ __ __ __ __ __ __ __ __ __ __ __ __ __ __
 72
    65
 73
     2
 40
0.75
 49
0.5
 49
-0.25
  0
LTYPE
  2
DASHDOT
 70
    64
  3
__ . __ . __ . __ . __ . __ . __ . __ . __ . __
 72
    65
 73
     4
 40
1.0
 49
0.5
 49
-0.25
 49
0.0
 49
-0.25
  0
ENDTAB
  0
TABLE
  2
LAYER
 70
     5
  0
LAYER
  2
LC-INFO-1-1-MM-A0-0
 70
    64
 62
     7
  6
CONTINUOUS
  0
LAYER
  2
LC-001-150-----0
 70
    64
 62
     7
  6
CONTINUOUS
  0
LAYER
  2
LC-002-021-SLN-3
 70
    64
 62
     7
  6
CONTINUOUS
  0
LAYER
  2
LC-003-002-----0
 70
    64
 62
     7
  6
CONTINUOUS
  0
LAYER
  2
LC-004-006-----0
 70
    64
 62
     7
  6
CONTINUOUS
  0
ENDTAB
  0
TABLE
  2
STYLE
 70
     1
  0
STYLE
  2
TXT8
 70
    64
 40
0.0
 41
1.0
 50
0.0
 71
     0
 42
3.500000
  3
TXT8
  4

  0
ENDTAB
  0
ENDSEC
  0
SECTION
  2
BLOCKS
  0
ENDSEC
  0
SECTION
  2
ENTITIES
  0
ARC
  8
LC-001-150-----0
 62
     1
  6
CONTINUOUS
 10
267.297577
 20
263.390625
 40
26.411366
 50
359.889901
 51
6.019093
  0
ARC
  8
LC-001-150-----0
 62
     1
  6
CONTINUOUS
 10
279.471436
 20
264.786530
 40
14.158699
 50
5.567154
 51
14.877235
  0
ARC
  8
LC-001-150-----0
 62
     1
  6
CONTINUOUS
 10
290.159576
 20
267.780945
 40
3.063701
 50
12.073435
 51
38.231605
  0
ARC
  8
LC-001-150-----0
 62
     1
  6
CONTINUOUS
 10
292.114502
 20
269.244965
 40
0.624947
 50
43.720372
 51
62.438256
  0
ARC
  8
LC-001-150-----0
 62
     1
  6
CONTINUOUS
 10
292.235474
 20
269.473602
 40
0.366284
 50
62.669110
 51
89.436061
  0
ARC
  8
LC-001-150-----0
 62
     1
  6
CONTINUOUS
 10
292.242706
 20
269.473602
 40
0.366284
 50
90.563937
 51
117.330888
  0
ARC
  8
LC-001-150-----0
 62
     1
  6
CONTINUOUS
 10
292.363678
 20
269.244965
 40
0.624947
 50
117.561749
 51
136.279623
  0
ARC
  8
LC-001-150-----0
 62
     1
  6
CONTINUOUS
 10
294.318604
 20
267.780945
 40
3.063701
 50
141.768390
 51
167.926566
  0
ARC
  8
LC-001-150-----0
 62
     1
  6
CONTINUOUS
 10
305.006744
 20
264.786530
 40
14.158699
 50
165.122760
 51
174.432841
  0
ARC
  8
LC-001-150-----0
 62
     1
  6
CONTINUOUS
 10
317.180603
 20
263.390625
 40
26.411366
 50
173.980901
 51
180.110098
  0
ARC
  8
LC-001-150-----0
 62
     1
  6
CONTINUOUS
 10
317.180603
 20
263.289124
 40
26.411366
 50
179.889902
 51
186.019099
  0
ARC
  8
LC-001-150-----0
 62
     1
  6
CONTINUOUS
 10
305.006744
 20
261.893188
 40
14.158699
 50
185.567159
 51
194.877240
  0
ARC
  8
LC-001-150-----0
 62
     1
  6
CONTINUOUS
 10
294.318604
 20
258.898773
 40
3.063701
 50
192.073434
 51
218.231610
  0
ARC
  8
LC-001-150-----0
 62
     1
  6
CONTINUOUS
 10
292.363678
 20
257.434753
 40
0.624947
 50
223.720377
 51
242.438251
  0
ARC
  8
LC-001-150-----0
 62
     1
  6
CONTINUOUS
 10
292.242706
 20
257.206116
 40
0.366284
 50
242.669112
 51
269.436063
  0
ARC
  8
LC-001-150-----0
 62
     1
  6
CONTINUOUS
 10
292.235474
 20
257.206116
 40
0.366284
 50
270.563939
 51
297.330890
  0
ARC
  8
LC-001-150-----0
 62
     1
  6
CONTINUOUS
 10
292.114502
 20
257.434753
 40
0.624947
 50
297.561744
 51
316.279628
  0
ARC
  8
LC-001-150-----0
 62
     1
  6
CONTINUOUS
 10
290.159576
 20
258.898773
 40
3.063701
 50
321.768395
 51
347.926565
  0
ARC
  8
LC-001-150-----0
 62
     1
  6
CONTINUOUS
 10
279.471436
 20
261.893188
 40
14.158699
 50
345.122765
 51
354.432846
  0
ARC
  8
LC-001-150-----0
 62
     1
  6
CONTINUOUS
 10
267.297577
 20
263.289124
 40
26.411366
 50
353.980907
 51
0.110099
  0
LINE
  8
LC-003-002-----0
 62
     2
  6
DASHED
 10
283.302948
 20
397.771484
 11
293.708893
 21
397.771484
  0
LINE
  8
LC-001-150-----0
 62
     1
  6
CONTINUOUS
 10
192.102951
 20
369.271484
 11
192.102951
 21
359.271484
  0
LINE
  8
LC-001-150-----0
 62
     1
  6
CONTINUOUS
 10
254.555328
 20
422.397614
 11
259.204132
 21
432.367004
  0
LINE
  8
LC-001-150-----0
 62
     1
  6
CONTINUOUS
 10
192.102951
 20
359.271484
 11
300.102966
 21
359.271484
  0
LINE
  8
LC-001-150-----0
 62
     1
  6
CONTINUOUS
 10
237.650589
 20
422.397614
 11
233.001785
 21
432.367004
  0
LINE
  8
LC-001-150-----0
 62
     1
  6
CONTINUOUS
 10
227.085129
 20
445.055328
 11
200.558212
 21
445.055328
  0
ARC
  8
LC-001-150-----0
 62
     1
  6
CONTINUOUS
 10
200.558212
 20
443.055328
 40
2.000000
 50
90.000003
 51
175.000006
  0
ARC
  8
LC-001-150-----0
 62
     1
  6
CONTINUOUS
 10
246.102951
 20
404.271484
 40
45.000000
 50
12.741697
 51
65.000001
  0
ARC
  8
LC-001-150-----0
 62
     1
  6
CONTINUOUS
 10
246.102951
 20
404.271484
 40
41.000000
 50
115.000004
 51
65.000001
  0
ARC
  8
LC-001-150-----0
 62
     1
  6
CONTINUOUS
 10
246.102951
 20
404.271484
 40
31.000000
 50
115.000004
 51
65.000001
  0
ARC
  8
LC-001-150-----0
 62
     1
  6
CONTINUOUS
 10
246.102951
 20
404.271484
 40
28.000000
 50
115.000004
 51
65.000001
  0
LINE
  8
LC-001-150-----0
 62
     1
  6
CONTINUOUS
 10
233.001785
 20
432.367004
 11
227.085129
 21
445.055328
  0
LINE
  8
LC-001-150-----0
 62
     1
  6
CONTINUOUS
 10
259.204132
 20
432.367004
 11
265.120789
 21
445.055328
  0
LINE
  8
LC-001-150-----0
 62
     1
  6
CONTINUOUS
 10
227.085129
 20
291.339874
 11
227.085129
 21
235.339844
  0
LINE
  8
LC-001-150-----0
 62
     1
  6
CONTINUOUS
 10
265.120789
 20
291.339874
 11
265.120789
 21
235.339844
  0
LINE
  8
LC-001-150-----0
 62
     1
  6
CONTINUOUS
 10
233.001785
 20
303.339874
 11
233.001785
 21
291.339874
  0
LINE
  8
LC-001-150-----0
 62
     1
  6
CONTINUOUS
 10
259.204132
 20
303.339874
 11
259.204132
 21
291.339874
  0
LINE
  8
LC-001-150-----0
 62
     1
  6
CONTINUOUS
 10
237.650589
 20
303.339874
 11
237.650589
 21
223.339844
  0
LINE
  8
LC-001-150-----0
 62
     1
  6
CONTINUOUS
 10
254.555328
 20
303.339874
 11
254.555328
 21
223.339844
  0
LINE
  8
LC-001-150-----0
 62
     1
  6
CONTINUOUS
 10
192.102951
 20
276.339874
 11
227.085129
 21
276.339874
  0
LINE
  8
LC-001-150-----0
 62
     1
  6
CONTINUOUS
 10
265.120789
 20
276.339874
 11
300.102966
 21
276.339874
  0
LINE
  8
LC-001-150-----0
 62
     1
  6
CONTINUOUS
 10
192.102951
 20
250.339859
 11
227.085129
 21
250.339859
  0
LINE
  8
LC-001-150-----0
 62
     1
  6
CONTINUOUS
 10
265.120789
 20
250.339859
 11
300.102966
 21
250.339859
  0
LINE
  8
LC-001-150-----0
 62
     1
  6
CONTINUOUS
 10
207.102951
 20
291.339874
 11
233.001785
 21
291.339874
  0
LINE
  8
LC-003-002-----0
 62
     2
  6
DASHED
 10
233.001785
 20
291.339874
 11
259.204132
 21
291.339874
  0
LINE
  8
LC-001-150-----0
 62
     1
  6
CONTINUOUS
 10
259.204132
 20
291.339874
 11
285.102966
 21
291.339874
  0
LINE
  8
LC-001-150-----0
 62
     1
  6
CONTINUOUS
 10
207.102951
 20
235.339859
 11
233.001785
 21
235.339859
  0
LINE
  8
LC-001-150-----0
 62
     1
  6
CONTINUOUS
 10
194.102951
 20
371.271484
 11
216.303635
 21
371.271484
  0
LINE
  8
LC-003-002-----0
 62
     2
  6
DASHED
 10
233.001785
 20
235.339859
 11
259.204132
 21
235.339859
  0
LINE
  8
LC-001-150-----0
 62
     1
  6
CONTINUOUS
 10
259.204132
 20
235.339859
 11
285.102966
 21
235.339859
  0
LINE
  8
LC-001-150-----0
 62
     1
  6
CONTINUOUS
 10
233.001785
 20
291.339874
 11
233.001785
 21
235.339844
  0
LINE
  8
LC-001-150-----0
 62
     1
  6
CONTINUOUS
 10
259.204132
 20
291.339874
 11
259.204132
 21
235.339844
  0
LINE
  8
LC-001-150-----0
 62
     1
  6
CONTINUOUS
 10
259.204132
 20
235.339859
 11
259.204132
 21
223.339859
  0
LINE
  8
LC-001-150-----0
 62
     1
  6
CONTINUOUS
 10
233.001785
 20
235.339859
 11
233.001785
 21
223.339859
  0
LINE
  8
LC-002-021-SLN-3
 62
     2
  6
DASHDOT
 10
201.100311
 20
404.271484
 11
294.888000
 21
404.271484
  0
LINE
  8
LC-001-150-----0
 62
     1
  6
CONTINUOUS
 10
300.102966
 20
369.271484
 11
300.102966
 21
359.271484
  0
ARC
  8
LC-001-150-----0
 62
     1
  6
CONTINUOUS
 10
194.102951
 20
369.271484
 40
2.000000
 50
90.000003
 51
180.000009
  0
ARC
  8
LC-001-150-----0
 62
     1
  6
CONTINUOUS
 10
298.102966
 20
369.271484
 40
2.000000
 50
0.000000
 51
90.000003
  0
LINE
  8
LC-002-021-SLN-3
 62
     2
  6
DASHDOT
 10
246.102951
 20
354.545685
 11
246.102951
 21
453.283295
  0
CIRCLE
  8
LC-001-150-----0
 62
     1
  6
CONTINUOUS
 10
246.102951
 20
404.271484
 40
20.000000
  0
LINE
  8
LC-001-150-----0
 62
     1
  6
CONTINUOUS
 10
300.053711
 20
369.712585
 11
289.994812
 21
414.196503
  0
LINE
  8
LC-001-150-----0
 62
     1
  6
CONTINUOUS
 10
192.110565
 20
369.445770
 11
198.565811
 21
443.229645
  0
LINE
  8
LC-002-021-SLN-3
 62
     2
  6
DASHDOT
 10
289.102966
 20
354.545685
 11
289.102966
 21
376.239807
  0
LINE
  8
LC-003-002-----0
 62
     2
  6
DASHED
 10
293.602966
 20
359.271484
 11
293.602966
 21
371.271484
  0
LINE
  8
LC-003-002-----0
 62
     2
  6
DASHED
 10
284.602966
 20
359.271484
 11
284.602966
 21
371.271484
  0
LINE
  8
LC-002-021-SLN-3
 62
     2
  6
DASHDOT
 10
203.102951
 20
354.545685
 11
203.102951
 21
376.239807
  0
LINE
  8
LC-003-002-----0
 62
     2
  6
DASHED
 10
198.602951
 20
359.271484
 11
198.602951
 21
371.271484
  0
LINE
  8
LC-003-002-----0
 62
     2
  6
DASHED
 10
207.602951
 20
359.271484
 11
207.602951
 21
371.271484
  0
ARC
  8
LC-001-150-----0
 62
     1
  6
CONTINUOUS
 10
216.303635
 20
373.271484
 40
2.000000
 50
269.999997
 51
46.131337
  0
ARC
  8
LC-001-150-----0
 62
     1
  6
CONTINUOUS
 10
275.902283
 20
373.271484
 40
2.000000
 50
133.868661
 51
269.999997
  0
LINE
  8
LC-001-150-----0
 62
     1
  6
CONTINUOUS
 10
275.902283
 20
371.271484
 11
298.102966
 21
371.271484
  0
LINE
  8
LC-001-150-----0
 62
     1
  6
CONTINUOUS
 10
343.104370
 20
359.271484
 11
421.104370
 21
359.271484
  0
LINE
  8
LC-001-150-----0
 62
     1
  6
CONTINUOUS
 10
421.104370
 20
359.271484
 11
421.104370
 21
369.271484
  0
LINE
  8
LC-001-150-----0
 62
     1
  6
CONTINUOUS
 10
345.104370
 20
371.271484
 11
419.104370
 21
371.271484
  0
LINE
  8
LC-001-150-----0
 62
     1
  6
CONTINUOUS
 10
343.104370
 20
359.271484
 11
343.104370
 21
369.271484
  0
LINE
  8
LC-002-021-SLN-3
 62
     2
  6
DASHDOT
 10
382.104370
 20
354.545685
 11
382.104370
 21
448.942017
  0
ARC
  8
LC-001-150-----0
 62
     1
  6
CONTINUOUS
 10
345.104370
 20
369.271484
 40
2.000000
 50
90.000003
 51
180.000009
  0
ARC
  8
LC-001-150-----0
 62
     1
  6
CONTINUOUS
 10
419.104370
 20
369.271484
 40
2.000000
 50
0.000000
 51
90.000003
  0
LINE
  8
LC-001-150-----0
 62
     1
  6
CONTINUOUS
 10
410.104370
 20
373.271484
 11
410.104370
 21
443.055328
  0
LINE
  8
LC-001-150-----0
 62
     1
  6
CONTINUOUS
 10
354.104370
 20
373.271484
 11
354.104370
 21
443.055328
  0
ARC
  8
LC-001-150-----0
 62
     1
  6
CONTINUOUS
 10
356.104370
 20
443.055328
 40
2.000000
 50
90.000003
 51
180.000009
  0
ARC
  8
LC-001-150-----0
 62
     1
  6
CONTINUOUS
 10
408.104370
 20
443.055328
 40
2.000000
 50
0.000000
 51
90.000003
  0
ARC
  8
LC-001-150-----0
 62
     1
  6
CONTINUOUS
 10
412.104370
 20
373.271484
 40
2.000000
 50
180.000009
 51
269.999997
  0
ARC
  8
LC-001-150-----0
 62
     1
  6
CONTINUOUS
 10
352.104370
 20
373.271484
 40
2.000000
 50
269.999997
 51
0.000000
  0
LINE
  8
LC-001-150-----0
 62
     1
  6
CONTINUOUS
 10
395.104370
 20
373.271484
 11
395.104370
 21
443.055328
  0
LINE
  8
LC-001-150-----0
 62
     1
  6
CONTINUOUS
 10
369.104370
 20
373.271484
 11
369.104370
 21
443.055328
  0
ARC
  8
LC-001-150-----0
 62
     1
  6
CONTINUOUS
 10
367.104370
 20
373.271484
 40
2.000000
 50
269.999997
 51
0.000000
  0
ARC
  8
LC-001-150-----0
 62
     1
  6
CONTINUOUS
 10
397.104370
 20
373.271484
 40
2.000000
 50
180.000009
 51
269.999997
  0
LINE
  8
LC-001-150-----0
 62
     1
  6
CONTINUOUS
 10
356.104370
 20
445.055328
 11
408.104370
 21
445.055328
  0
ARC
  8
LC-001-150-----0
 62
     1
  6
CONTINUOUS
 10
371.104370
 20
443.055328
 40
2.000000
 50
90.000003
 51
180.000009
  0
ARC
  8
LC-001-150-----0
 62
     1
  6
CONTINUOUS
 10
393.104370
 20
443.055328
 40
2.000000
 50
0.000000
 51
90.000003
  0
LINE
  8
LC-001-150-----0
 62
     1
  6
CONTINUOUS
 10
192.102951
 20
300.339874
 11
192.102951
 21
226.339844
  0
LINE
  8
LC-001-150-----0
 62
     1
  6
CONTINUOUS
 10
194.102951
 20
224.339859
 11
215.188736
 21
224.339859
  0
LINE
  8
LC-002-021-SLN-3
 62
     2
  6
DASHDOT
 10
353.104370
 20
354.545685
 11
353.104370
 21
376.239807
  0
LINE
  8
LC-002-021-SLN-3
 62
     2
  6
DASHDOT
 10
411.104370
 20
354.545685
 11
411.104370
 21
376.239807
  0
LINE
  8
LC-003-002-----0
 62
     2
  6
DASHED
 10
415.604370
 20
359.271484
 11
415.604370
 21
371.271484
  0
LINE
  8
LC-003-002-----0
 62
     2
  6
DASHED
 10
406.604370
 20
359.271484
 11
406.604370
 21
371.271484
  0
LINE
  8
LC-001-150-----0
 62
     1
  6
CONTINUOUS
 10
343.604370
 20
432.367004
 11
354.104370
 21
432.367004
  0
LINE
  8
LC-003-002-----0
 62
     2
  6
DASHED
 10
348.604370
 20
359.271484
 11
348.604370
 21
371.271484
  0
LINE
  8
LC-003-002-----0
 62
     2
  6
DASHED
 10
357.604370
 20
359.271484
 11
357.604370
 21
371.271484
  0
LINE
  8
LC-001-150-----0
 62
     1
  6
CONTINUOUS
 10
343.604370
 20
373.271484
 11
354.104370
 21
373.271484
  0
LINE
  8
LC-001-150-----0
 62
     1
  6
CONTINUOUS
 10
422.104370
 20
374.771484
 11
422.104370
 21
430.867004
  0
LINE
  8
LC-001-150-----0
 62
     1
  6
CONTINUOUS
 10
342.104370
 20
374.771484
 11
342.104370
 21
430.867004
  0
ARC
  8
LC-001-150-----0
 62
     1
  6
CONTINUOUS
 10
343.604370
 20
430.867004
 40
1.500000
 50
90.000003
 51
180.000009
  0
ARC
  8
LC-001-150-----0
 62
     1
  6
CONTINUOUS
 10
343.604370
 20
374.771484
 40
1.500000
 50
180.000009
 51
269.999997
  0
ARC
  8
LC-001-150-----0
 62
     1
  6
CONTINUOUS
 10
420.604370
 20
374.771484
 40
1.500000
 50
269.999997
 51
0.000000
  0
ARC
  8
LC-001-150-----0
 62
     1
  6
CONTINUOUS
 10
420.604370
 20
430.867004
 40
1.500000
 50
0.000000
 51
90.000003
  0
LINE
  8
LC-001-150-----0
 62
     1
  6
CONTINUOUS
 10
300.102966
 20
300.339874
 11
300.102966
 21
226.339844
  0
LINE
  8
LC-003-002-----0
 62
     2
  6
DASHED
 10
354.104370
 20
432.367004
 11
410.104370
 21
432.367004
  0
LINE
  8
LC-003-002-----0
 62
     2
  6
DASHED
 10
354.104370
 20
373.271484
 11
410.104370
 21
373.271484
  0
LINE
  8
LC-001-150-----0
 62
     1
  6
CONTINUOUS
 10
410.104370
 20
373.271484
 11
420.604370
 21
373.271484
  0
LINE
  8
LC-001-150-----0
 62
     1
  6
CONTINUOUS
 10
410.104370
 20
432.367004
 11
420.604370
 21
432.367004
  0
LINE
  8
LC-002-021-SLN-3
 62
     2
  6
DASHDOT
 10
321.515320
 20
404.271484
 11
445.409821
 21
404.271484
  0
LINE
  8
LC-001-150-----0
 62
     1
  6
CONTINUOUS
 10
327.787964
 20
424.271484
 11
342.104370
 21
424.271484
  0
LINE
  8
LC-004-006-----0
 62
     2
  6
CONTINUOUS
 10
439.365509
 20
384.271484
 11
441.338257
 21
394.355774
  0
LINE
  8
LC-004-006-----0
 62
     2
  6
CONTINUOUS
 10
441.338257
 20
394.355774
 11
439.748077
 21
410.638885
  0
LINE
  8
LC-004-006-----0
 62
     2
  6
CONTINUOUS
 10
439.748077
 20
410.638885
 11
441.088684
 21
424.271484
  0
LINE
  8
LC-004-006-----0
 62
     2
  6
CONTINUOUS
 10
324.595673
 20
384.271484
 11
326.949921
 21
395.865295
  0
LINE
  8
LC-004-006-----0
 62
     2
  6
CONTINUOUS
 10
326.949921
 20
395.865295
 11
326.041229
 21
414.838928
  0
LINE
  8
LC-004-006-----0
 62
     2
  6
CONTINUOUS
 10
326.041229
 20
414.838928
 11
327.787964
 21
424.271484
  0
LINE
  8
LC-003-002-----0
 62
     2
  6
DASHED
 10
342.104370
 20
424.271484
 11
422.104370
 21
424.271484
  0
LINE
  8
LC-001-150-----0
 62
     1
  6
CONTINUOUS
 10
324.595673
 20
384.271484
 11
342.104370
 21
384.271484
  0
LINE
  8
LC-003-002-----0
 62
     2
  6
DASHED
 10
342.104370
 20
384.271484
 11
422.104370
 21
384.271484
  0
LINE
  8
LC-001-150-----0
 62
     1
  6
CONTINUOUS
 10
422.104370
 20
424.271484
 11
441.088684
 21
424.271484
  0
LINE
  8
LC-001-150-----0
 62
     1
  6
CONTINUOUS
 10
422.104370
 20
384.271484
 11
439.365509
 21
384.271484
  0
LINE
  8
LC-001-150-----0
 62
     1
  6
CONTINUOUS
 10
194.102951
 20
302.339874
 11
215.188736
 21
302.339874
  0
LINE
  8
LC-002-021-SLN-3
 62
     2
  6
DASHDOT
 10
185.076675
 20
263.339874
 11
296.389923
 21
263.339874
  0
ARC
  8
LC-001-150-----0
 62
     1
  6
CONTINUOUS
 10
194.102951
 20
300.339874
 40
2.000000
 50
90.000003
 51
180.000009
  0
ARC
  8
LC-001-150-----0
 62
     1
  6
CONTINUOUS
 10
194.102951
 20
226.339859
 40
2.000000
 50
180.000009
 51
269.999997
  0
ARC
  8
LC-001-150-----0
 62
     1
  6
CONTINUOUS
 10
298.102966
 20
226.339859
 40
2.000000
 50
269.999997
 51
0.000000
  0
ARC
  8
LC-001-150-----0
 62
     1
  6
CONTINUOUS
 10
298.102966
 20
300.339874
 40
2.000000
 50
0.000000
 51
90.000003
  0
LINE
  8
LC-001-150-----0
 62
     1
  6
CONTINUOUS
 10
198.234772
 20
274.339874
 11
198.234772
 21
252.339844
  0
ARC
  8
LC-001-150-----0
 62
     1
  6
CONTINUOUS
 10
200.234772
 20
252.339859
 40
2.000000
 50
180.000009
 51
269.999997
  0
ARC
  8
LC-001-150-----0
 62
     1
  6
CONTINUOUS
 10
200.234772
 20
274.339874
 40
2.000000
 50
90.000003
 51
180.000009
  0
LINE
  8
LC-002-021-SLN-3
 62
     2
  6
DASHDOT
 10
196.342468
 20
292.339874
 11
210.150848
 21
292.339874
  0
LINE
  8
LC-002-021-SLN-3
 62
     2
  6
DASHDOT
 10
203.102951
 20
298.531982
 11
203.102951
 21
285.568848
  0
ARC
  8
LC-001-150-----0
 62
     1
  6
CONTINUOUS
 10
203.102951
 20
292.339874
 40
4.500000
 50
347.160412
 51
296.387798
  0
LINE
  8
LC-002-021-SLN-3
 62
     2
  6
DASHDOT
 10
196.342468
 20
234.339859
 11
210.150848
 21
234.339859
  0
LINE
  8
LC-002-021-SLN-3
 62
     2
  6
DASHDOT
 10
203.102951
 20
228.147736
 11
203.102951
 21
241.110870
  0
ARC
  8
LC-001-150-----0
 62
     1
  6
CONTINUOUS
 10
203.102951
 20
234.339859
 40
4.500000
 50
63.612202
 51
12.839588
  0
LINE
  8
LC-002-021-SLN-3
 62
     2
  6
DASHDOT
 10
295.863434
 20
292.339874
 11
282.055084
 21
292.339874
  0
LINE
  8
LC-002-021-SLN-3
 62
     2
  6
DASHDOT
 10
289.102966
 20
298.531982
 11
289.102966
 21
285.568848
  0
ARC
  8
LC-001-150-----0
 62
     1
  6
CONTINUOUS
 10
289.102966
 20
292.339874
 40
4.500000
 50
243.612197
 51
192.839589
  0
LINE
  8
LC-002-021-SLN-3
 62
     2
  6
DASHDOT
 10
295.863434
 20
234.339859
 11
282.055084
 21
234.339859
  0
LINE
  8
LC-002-021-SLN-3
 62
     2
  6
DASHDOT
 10
289.102966
 20
228.147736
 11
289.102966
 21
241.110870
  0
ARC
  8
LC-001-150-----0
 62
     1
  6
CONTINUOUS
 10
289.102966
 20
234.339859
 40
4.500000
 50
167.160411
 51
116.387803
  0
LINE
  8
LC-001-150-----0
 62
     1
  6
CONTINUOUS
 10
205.102951
 20
289.339874
 11
205.102951
 21
278.339874
  0
LINE
  8
LC-001-150-----0
 62
     1
  6
CONTINUOUS
 10
287.102966
 20
289.339874
 11
287.102966
 21
278.339874
  0
ARC
  8
LC-001-150-----0
 62
     1
  6
CONTINUOUS
 10
207.102951
 20
289.339874
 40
2.000000
 50
90.000003
 51
180.000009
  0
ARC
  8
LC-001-150-----0
 62
     1
  6
CONTINUOUS
 10
207.102951
 20
237.339859
 40
2.000000
 50
180.000009
 51
269.999997
  0
ARC
  8
LC-001-150-----0
 62
     1
  6
CONTINUOUS
 10
285.102966
 20
237.339859
 40
2.000000
 50
269.999997
 51
0.000000
  0
ARC
  8
LC-001-150-----0
 62
     1
  6
CONTINUOUS
 10
285.102966
 20
289.339874
 40
2.000000
 50
0.000000
 51
90.000003
  0
LINE
  8
LC-001-150-----0
 62
     1
  6
CONTINUOUS
 10
205.102951
 20
248.339859
 11
205.102951
 21
237.339859
  0
LINE
  8
LC-001-150-----0
 62
     1
  6
CONTINUOUS
 10
287.102966
 20
248.339859
 11
287.102966
 21
237.339859
  0
ARC
  8
LC-003-002-----0
 62
     2
  6
DASHED
 10
203.102951
 20
292.339874
 40
4.500000
 50
296.387798
 51
347.160412
  0
ARC
  8
LC-003-002-----0
 62
     2
  6
DASHED
 10
203.102951
 20
234.339859
 40
4.500000
 50
12.839588
 51
63.612202
  0
ARC
  8
LC-003-002-----0
 62
     2
  6
DASHED
 10
289.102966
 20
292.339874
 40
4.500000
 50
192.839589
 51
243.612197
  0
ARC
  8
LC-003-002-----0
 62
     2
  6
DASHED
 10
289.102966
 20
234.339859
 40
4.500000
 50
116.387803
 51
167.160411
  0
ARC
  8
LC-001-150-----0
 62
     1
  6
CONTINUOUS
 10
203.102951
 20
278.339874
 40
2.000000
 50
269.999997
 51
0.000000
  0
ARC
  8
LC-001-150-----0
 62
     1
  6
CONTINUOUS
 10
203.102951
 20
248.339859
 40
2.000000
 50
0.000000
 51
90.000003
  0
ARC
  8
LC-001-150-----0
 62
     1
  6
CONTINUOUS
 10
289.102966
 20
278.339874
 40
2.000000
 50
180.000009
 51
269.999997
  0
ARC
  8
LC-001-150-----0
 62
     1
  6
CONTINUOUS
 10
289.102966
 20
248.339859
 40
2.000000
 50
90.000003
 51
180.000009
  0
LINE
  8
LC-001-150-----0
 62
     1
  6
CONTINUOUS
 10
266.102966
 20
316.811310
 11
266.102966
 21
303.339874
  0
LINE
  8
LC-001-150-----0
 62
     1
  6
CONTINUOUS
 10
215.102951
 20
301.839874
 11
215.102951
 21
291.339874
  0
LINE
  8
LC-001-150-----0
 62
     1
  6
CONTINUOUS
 10
277.102966
 20
301.839874
 11
277.102966
 21
291.339874
  0
LINE
  8
LC-004-006-----0
 62
     2
  6
CONTINUOUS
 10
226.102951
 20
210.580765
 11
236.130554
 21
209.274918
  0
LINE
  8
LC-001-150-----0
 62
     1
  6
CONTINUOUS
 10
216.602951
 20
303.339874
 11
275.602966
 21
303.339874
  0
LINE
  8
LC-001-150-----0
 62
     1
  6
CONTINUOUS
 10
216.602951
 20
223.339859
 11
275.602966
 21
223.339859
  0
ARC
  8
LC-001-150-----0
 62
     1
  6
CONTINUOUS
 10
216.602951
 20
301.839874
 40
1.500000
 50
90.000003
 51
180.000009
  0
ARC
  8
LC-001-150-----0
 62
     1
  6
CONTINUOUS
 10
275.602966
 20
301.839874
 40
1.500000
 50
0.000000
 51
90.000003
  0
ARC
  8
LC-001-150-----0
 62
     1
  6
CONTINUOUS
 10
275.602966
 20
224.839859
 40
1.500000
 50
269.999997
 51
0.000000
  0
ARC
  8
LC-001-150-----0
 62
     1
  6
CONTINUOUS
 10
216.602951
 20
224.839859
 40
1.500000
 50
180.000009
 51
269.999997
  0
LINE
  8
LC-001-150-----0
 62
     1
  6
CONTINUOUS
 10
215.102951
 20
235.339859
 11
215.102951
 21
224.839859
  0
LINE
  8
LC-003-002-----0
 62
     2
  6
DASHED
 10
215.188736
 20
224.339859
 11
277.017181
 21
224.339859
  0
LINE
  8
LC-001-150-----0
 62
     1
  6
CONTINUOUS
 10
277.017181
 20
224.339859
 11
298.102966
 21
224.339859
  0
LINE
  8
LC-003-002-----0
 62
     2
  6
DASHED
 10
215.188736
 20
302.339874
 11
277.017181
 21
302.339874
  0
LINE
  8
LC-001-150-----0
 62
     1
  6
CONTINUOUS
 10
277.017181
 20
302.339874
 11
298.102966
 21
302.339874
  0
LINE
  8
LC-001-150-----0
 62
     1
  6
CONTINUOUS
 10
277.102966
 20
235.339859
 11
277.102966
 21
224.839859
  0
LINE
  8
LC-003-002-----0
 62
     2
  6
DASHED
 10
277.102966
 20
291.339874
 11
277.102966
 21
235.339844
  0
LINE
  8
LC-003-002-----0
 62
     2
  6
DASHED
 10
215.102951
 20
291.339874
 11
215.102951
 21
235.339844
  0
LINE
  8
LC-004-006-----0
 62
     2
  6
CONTINUOUS
 10
236.130554
 20
209.274918
 11
255.874832
 21
211.896103
  0
LINE
  8
LC-004-006-----0
 62
     2
  6
CONTINUOUS
 10
255.874832
 20
211.896103
 11
266.102966
 21
209.868408
  0
LINE
  8
LC-004-006-----0
 62
     2
  6
CONTINUOUS
 10
226.102951
 20
316.098969
 11
236.130554
 21
317.404816
  0
LINE
  8
LC-004-006-----0
 62
     2
  6
CONTINUOUS
 10
236.130554
 20
317.404816
 11
255.874832
 21
314.783630
  0
LINE
  8
LC-004-006-----0
 62
     2
  6
CONTINUOUS
 10
255.874832
 20
314.783630
 11
266.102966
 21
316.811310
  0
LINE
  8
LC-001-150-----0
 62
     1
  6
CONTINUOUS
 10
226.102951
 20
316.098969
 11
226.102951
 21
303.339874
  0
LINE
  8
LC-003-002-----0
 62
     2
  6
DASHED
 10
226.102951
 20
303.339874
 11
226.102951
 21
223.339844
  0
LINE
  8
LC-003-002-----0
 62
     2
  6
DASHED
 10
266.102966
 20
303.339874
 11
266.102966
 21
223.339844
  0
LINE
  8
LC-001-150-----0
 62
     1
  6
CONTINUOUS
 10
266.102966
 20
223.339859
 11
266.102966
 21
209.868408
  0
LINE
  8
LC-001-150-----0
 62
     1
  6
CONTINUOUS
 10
226.102951
 20
223.339859
 11
226.102951
 21
210.580765
  0
LINE
  8
LC-002-021-SLN-3
 62
     2
  6
DASHDOT
 10
246.102951
 20
320.424408
 11
246.102951
 21
205.881516
  0
LINE
  8
LC-003-002-----0
 62
     2
  6
DASHED
 10
282.802948
 20
402.271484
 11
277.302948
 21
402.271484
  0
LINE
  8
LC-003-002-----0
 62
     2
  6
DASHED
 10
283.302948
 20
256.839874
 11
292.239105
 21
256.839874
  0
LINE
  8
LC-003-002-----0
 62
     2
  6
DASHED
 10
282.802948
 20
261.339874
 11
277.302948
 21
261.339874
  0
LINE
  8
LC-003-002-----0
 62
     2
  6
DASHED
 10
282.802948
 20
406.271484
 11
277.302948
 21
406.271484
  0
LINE
  8
LC-003-002-----0
 62
     2
  6
DASHED
 10
277.552948
 20
401.771484
 11
282.802948
 21
401.771484
  0
LINE
  8
LC-003-002-----0
 62
     2
  6
DASHED
 10
282.802948
 20
406.771484
 11
277.552948
 21
406.771484
  0
ARC
  8
LC-003-002-----0
 62
     2
  6
DASHED
 10
274.452942
 20
405.771484
 40
0.250000
 50
90.000003
 51
180.000009
  0
ARC
  8
LC-003-002-----0
 62
     2
  6
DASHED
 10
274.452942
 20
402.771484
 40
0.250000
 50
180.000009
 51
269.999997
  0
LINE
  8
LC-003-002-----0
 62
     2
  6
DASHED
 10
277.302948
 20
406.021484
 11
274.452942
 21
406.021484
  0
LINE
  8
LC-003-002-----0
 62
     2
  6
DASHED
 10
283.302948
 20
406.471466
 11
282.802948
 21
406.471466
  0
LINE
  8
LC-003-002-----0
 62
     2
  6
DASHED
 10
283.302948
 20
402.071472
 11
282.802948
 21
402.071472
  0
LINE
  8
LC-003-002-----0
 62
     2
  6
DASHED
 10
282.802948
 20
406.771484
 11
282.802948
 21
401.771484
  0
ARC
  8
LC-003-002-----0
 62
     2
  6
DASHED
 10
283.302948
 20
401.721466
 40
1.999103
 50
337.965286
 51
22.034714
  0
LINE
  8
LC-003-002-----0
 62
     2
  6
DASHED
 10
277.302948
 20
402.521484
 11
274.452942
 21
402.521484
  0
ARC
  8
LC-003-002-----0
 62
     2
  6
DASHED
 10
283.302948
 20
406.821472
 40
1.999103
 50
337.965286
 51
22.034714
  0
ARC
  8
LC-003-002-----0
 62
     2
  6
DASHED
 10
274.202942
 20
404.271484
 40
11.100000
 50
350.667582
 51
9.332418
  0
LINE
  8
LC-003-002-----0
 62
     2
  6
DASHED
 10
277.302948
 20
406.521484
 11
277.302948
 21
402.021484
  0
LINE
  8
LC-003-002-----0
 62
     2
  6
DASHED
 10
285.156036
 20
406.071472
 11
283.302948
 21
406.071472
  0
LINE
  8
LC-003-002-----0
 62
     2
  6
DASHED
 10
285.156036
 20
402.471466
 11
283.302948
 21
402.471466
  0
LINE
  8
LC-003-002-----0
 62
     2
  6
DASHED
 10
285.156036
 20
407.571472
 11
283.302948
 21
407.571472
  0
LINE
  8
LC-003-002-----0
 62
     2
  6
DASHED
 10
285.156036
 20
400.971466
 11
283.302948
 21
400.971466
  0
LINE
  8
LC-003-002-----0
 62
     2
  6
DASHED
 10
285.302948
 20
406.821472
 11
285.302948
 21
401.721466
  0
LINE
  8
LC-003-002-----0
 62
     2
  6
DASHED
 10
283.302948
 20
410.771484
 11
283.302948
 21
397.771484
  0
LINE
  8
LC-003-002-----0
 62
     2
  6
DASHED
 10
277.552948
 20
406.771484
 11
277.552948
 21
401.771484
  0
LINE
  8
LC-003-002-----0
 62
     2
  6
DASHED
 10
277.552948
 20
406.771484
 11
277.302948
 21
406.521484
  0
LINE
  8
LC-003-002-----0
 62
     2
  6
DASHED
 10
277.302948
 20
402.021484
 11
277.552948
 21
401.771484
  0
LINE
  8
LC-003-002-----0
 62
     2
  6
DASHED
 10
274.202942
 20
405.771484
 11
274.202942
 21
402.771484
  0
LINE
  8
LC-003-002-----0
 62
     2
  6
DASHED
 10
283.302948
 20
410.771484
 11
290.769287
 21
410.771484
  0
CIRCLE
  8
LC-003-002-----0
 62
     2
  6
DASHED
 10
382.104370
 20
404.271484
 40
6.500000
  0
LINE
  8
LC-003-002-----0
 62
     2
  6
DASHED
 10
379.244385
 20
405.922699
 11
382.104370
 21
407.573914
  0
LINE
  8
LC-003-002-----0
 62
     2
  6
DASHED
 10
382.104370
 20
400.969025
 11
384.964386
 21
402.620239
  0
LINE
  8
LC-003-002-----0
 62
     2
  6
DASHED
 10
379.244385
 20
402.620239
 11
379.244385
 21
405.922699
  0
LINE
  8
LC-003-002-----0
 62
     2
  6
DASHED
 10
384.964386
 20
402.620239
 11
384.964386
 21
405.922699
  0
LINE
  8
LC-003-002-----0
 62
     2
  6
DASHED
 10
382.104370
 20
400.969025
 11
379.244385
 21
402.620239
  0
LINE
  8
LC-003-002-----0
 62
     2
  6
DASHED
 10
384.964386
 20
405.922699
 11
382.104370
 21
407.573914
  0
CIRCLE
  8
LC-003-002-----0
 62
     2
  6
DASHED
 10
382.104370
 20
404.271484
 40
2.860000
  0
LINE
  8
LC-003-002-----0
 62
     2
  6
DASHED
 10
282.802948
 20
265.339874
 11
277.302948
 21
265.339874
  0
LINE
  8
LC-003-002-----0
 62
     2
  6
DASHED
 10
277.552948
 20
260.839874
 11
282.802948
 21
260.839874
  0
LINE
  8
LC-003-002-----0
 62
     2
  6
DASHED
 10
282.802948
 20
265.839874
 11
277.552948
 21
265.839874
  0
ARC
  8
LC-003-002-----0
 62
     2
  6
DASHED
 10
274.452942
 20
264.839874
 40
0.250000
 50
90.000003
 51
180.000009
  0
ARC
  8
LC-003-002-----0
 62
     2
  6
DASHED
 10
274.452942
 20
261.839874
 40
0.250000
 50
180.000009
 51
269.999997
  0
LINE
  8
LC-003-002-----0
 62
     2
  6
DASHED
 10
277.302948
 20
265.089874
 11
274.452942
 21
265.089874
  0
LINE
  8
LC-003-002-----0
 62
     2
  6
DASHED
 10
283.302948
 20
265.539856
 11
282.802948
 21
265.539856
  0
LINE
  8
LC-003-002-----0
 62
     2
  6
DASHED
 10
283.302948
 20
261.139862
 11
282.802948
 21
261.139862
  0
LINE
  8
LC-003-002-----0
 62
     2
  6
DASHED
 10
282.802948
 20
265.839874
 11
282.802948
 21
260.839874
  0
ARC
  8
LC-003-002-----0
 62
     2
  6
DASHED
 10
283.302948
 20
260.789856
 40
1.999103
 50
337.965286
 51
22.034714
  0
LINE
  8
LC-003-002-----0
 62
     2
  6
DASHED
 10
277.302948
 20
261.589874
 11
274.452942
 21
261.589874
  0
ARC
  8
LC-003-002-----0
 62
     2
  6
DASHED
 10
283.302948
 20
265.889862
 40
1.999103
 50
337.965286
 51
22.034714
  0
ARC
  8
LC-003-002-----0
 62
     2
  6
DASHED
 10
274.202942
 20
263.339874
 40
11.100000
 50
350.667582
 51
9.332418
  0
LINE
  8
LC-003-002-----0
 62
     2
  6
DASHED
 10
277.302948
 20
265.589874
 11
277.302948
 21
261.089874
  0
LINE
  8
LC-003-002-----0
 62
     2
  6
DASHED
 10
285.156036
 20
265.139862
 11
283.302948
 21
265.139862
  0
LINE
  8
LC-003-002-----0
 62
     2
  6
DASHED
 10
285.156036
 20
261.539856
 11
283.302948
 21
261.539856
  0
LINE
  8
LC-003-002-----0
 62
     2
  6
DASHED
 10
285.156036
 20
266.639862
 11
283.302948
 21
266.639862
  0
LINE
  8
LC-003-002-----0
 62
     2
  6
DASHED
 10
285.156036
 20
260.039856
 11
283.302948
 21
260.039856
  0
LINE
  8
LC-003-002-----0
 62
     2
  6
DASHED
 10
274.202942
 20
264.839874
 11
274.202942
 21
261.839874
  0
LINE
  8
LC-003-002-----0
 62
     2
  6
DASHED
 10
283.302948
 20
269.839874
 11
283.302948
 21
256.839874
  0
LINE
  8
LC-003-002-----0
 62
     2
  6
DASHED
 10
277.552948
 20
265.839874
 11
277.552948
 21
260.839874
  0
LINE
  8
LC-003-002-----0
 62
     2
  6
DASHED
 10
277.552948
 20
265.839874
 11
277.302948
 21
265.589874
  0
LINE
  8
LC-003-002-----0
 62
     2
  6
DASHED
 10
277.302948
 20
261.089874
 11
277.552948
 21
260.839874
  0
LINE
  8
LC-003-002-----0
 62
     2
  6
DASHED
 10
285.302948
 20
265.889862
 11
285.302948
 21
260.789856
  0
LINE
  8
LC-003-002-----0
 62
     2
  6
DASHED
 10
283.302948
 20
269.839874
 11
292.239105
 21
269.839874
  0
ENDSEC
  0
EOF
