  0
SECTION
  2
HEADER
  9
$LIMMIN
 10
-118.984421
 20
356.322754
  9
$LIMMAX
 10
28.476257
 20
497.544373
  9
$EXTMIN
 10
-118.984421
 20
356.322754
  9
$EXTMAX
 10
28.476257
 20
497.544373
  0
ENDSEC
  0
SECTION
  2
TABLES
  0
TABLE
  2
LTYPE
 70
     3
  0
LTYPE
  2
CONTINUOUS
 70
    64
  3
Ausgezogene Linie
 72
    65
 73
     0
 40
0.0
  0
LTYPE
  2
DASHED
 70
    64
  3
__ __ __ __ __ __ __ __ __ __ __ __ __ __ __
 72
    65
 73
     2
 40
0.75
 49
0.5
 49
-0.25
  0
LTYPE
  2
DASHDOT
 70
    64
  3
__ . __ . __ . __ . __ . __ . __ . __ . __ . __
 72
    65
 73
     4
 40
1.0
 49
0.5
 49
-0.25
 49
0.0
 49
-0.25
  0
ENDTAB
  0
TABLE
  2
LAYER
 70
     4
  0
LAYER
  2
LC-001-150-----0
 70
    64
 62
     7
  6
CONTINUOUS
  0
LAYER
  2
LC-002-021-SLN-3
 70
    64
 62
     7
  6
CONTINUOUS
  0
LAYER
  2
LC-003-002-----0
 70
    64
 62
     7
  6
CONTINUOUS
  0
LAYER
  2
LC-004-006-----0
 70
    64
 62
     7
  6
CONTINUOUS
  0
ENDTAB
  0
TABLE
  2
STYLE
 70
     1
  0
STYLE
  2
TXT8
 70
    64
 40
0.0
 41
1.0
 50
0.0
 71
     0
 42
3.500000
  3
TXT8
  4

  0
ENDTAB
  0
ENDSEC
  0
SECTION
  2
BLOCKS
  0
ENDSEC
  0
SECTION
  2
ENTITIES
  0
LINE
  8
LC-001-150-----0
 62
     1
  6
CONTINUOUS
 10
-103.854218
 20
398.332245
 11
-103.854218
 21
376.332245
  0
LINE
  8
LC-001-150-----0
 62
     1
  6
CONTINUOUS
 10
-99.448975
 20
405.332245
 11
-99.448975
 21
398.332245
  0
LINE
  8
LC-001-150-----0
 62
     1
  6
CONTINUOUS
 10
-96.302368
 20
405.332245
 11
-96.302368
 21
369.332245
  0
LINE
  8
LC-001-150-----0
 62
     1
  6
CONTINUOUS
 10
-86.233246
 20
405.332245
 11
-86.233246
 21
369.332245
  0
LINE
  8
LC-001-150-----0
 62
     1
  6
CONTINUOUS
 10
-83.086639
 20
405.332245
 11
-83.086639
 21
398.332245
  0
LINE
  8
LC-001-150-----0
 62
     1
  6
CONTINUOUS
 10
-86.233246
 20
485.132629
 11
-83.086639
 21
489.018341
  0
LINE
  8
LC-001-150-----0
 62
     1
  6
CONTINUOUS
 10
-96.302368
 20
485.132629
 11
-99.448975
 21
489.018341
  0
LINE
  8
LC-001-150-----0
 62
     1
  6
CONTINUOUS
 10
-78.681396
 20
398.332245
 11
-78.681396
 21
376.332245
  0
LINE
  8
LC-001-150-----0
 62
     1
  6
CONTINUOUS
 10
-103.854218
 20
494.458374
 11
-112.551903
 21
494.458374
  0
ARC
  8
LC-001-150-----0
 62
     1
  6
CONTINUOUS
 10
-112.551903
 20
493.458374
 40
1.000000
 50
90.000003
 51
175.000006
  0
LINE
  8
LC-001-150-----0
 62
     1
  6
CONTINUOUS
 10
-116.267807
 20
391.332245
 11
-103.854218
 21
391.332245
  0
LINE
  8
LC-001-150-----0
 62
     1
  6
CONTINUOUS
 10
-78.681396
 20
391.332245
 11
-66.267807
 21
391.332245
  0
LINE
  8
LC-001-150-----0
 62
     1
  6
CONTINUOUS
 10
-116.267807
 20
383.332245
 11
-103.854218
 21
383.332245
  0
ARC
  8
LC-001-150-----0
 62
     1
  6
CONTINUOUS
 10
-91.267807
 20
478.915466
 40
17.500000
 50
128.999993
 51
51.000001
  0
ARC
  8
LC-001-150-----0
 62
     1
  6
CONTINUOUS
 10
-91.267807
 20
478.915466
 40
13.000000
 50
128.999993
 51
51.000001
  0
ARC
  8
LC-001-150-----0
 62
     1
  6
CONTINUOUS
 10
-91.267807
 20
478.915466
 40
11.000000
 50
128.999993
 51
51.000001
  0
LINE
  8
LC-001-150-----0
 62
     1
  6
CONTINUOUS
 10
-83.086639
 20
489.018341
 11
-78.681396
 21
494.458374
  0
LINE
  8
LC-001-150-----0
 62
     1
  6
CONTINUOUS
 10
-99.448975
 20
489.018341
 11
-103.854218
 21
494.458374
  0
LINE
  8
LC-001-150-----0
 62
     1
  6
CONTINUOUS
 10
-78.681396
 20
383.332245
 11
-66.267807
 21
383.332245
  0
LINE
  8
LC-001-150-----0
 62
     1
  6
CONTINUOUS
 10
-99.448975
 20
398.332245
 11
-99.448975
 21
376.332245
  0
LINE
  8
LC-001-150-----0
 62
     1
  6
CONTINUOUS
 10
-99.448975
 20
376.332245
 11
-99.448975
 21
369.332245
  0
LINE
  8
LC-001-150-----0
 62
     1
  6
CONTINUOUS
 10
-83.086639
 20
398.332245
 11
-83.086639
 21
376.332245
  0
LINE
  8
LC-001-150-----0
 62
     1
  6
CONTINUOUS
 10
-83.086639
 20
376.332245
 11
-83.086639
 21
369.332245
  0
LINE
  8
LC-001-150-----0
 62
     1
  6
CONTINUOUS
 10
-107.767807
 20
398.332245
 11
-99.448975
 21
398.332245
  0
LINE
  8
LC-003-002-----0
 62
     2
  6
DASHED
 10
-99.448975
 20
398.332245
 11
-83.086639
 21
398.332245
  0
LINE
  8
LC-001-150-----0
 62
     1
  6
CONTINUOUS
 10
-83.086639
 20
398.332245
 11
-74.767807
 21
398.332245
  0
LINE
  8
LC-001-150-----0
 62
     1
  6
CONTINUOUS
 10
-107.767807
 20
376.332245
 11
-99.448975
 21
376.332245
  0
LINE
  8
LC-003-002-----0
 62
     2
  6
DASHED
 10
-99.448975
 20
376.332245
 11
-83.086639
 21
376.332245
  0
LINE
  8
LC-001-150-----0
 62
     1
  6
CONTINUOUS
 10
-83.086639
 20
376.332245
 11
-74.767807
 21
376.332245
  0
LINE
  8
LC-001-150-----0
 62
     1
  6
CONTINUOUS
 10
-116.267807
 20
462.415466
 11
-116.267807
 21
456.915466
  0
LINE
  8
LC-001-150-----0
 62
     1
  6
CONTINUOUS
 10
-116.267807
 20
456.915466
 11
-66.267807
 21
456.915466
  0
LINE
  8
LC-001-150-----0
 62
     1
  6
CONTINUOUS
 10
-115.267807
 20
463.415466
 11
-102.756935
 21
463.415466
  0
LINE
  8
LC-002-021-SLN-3
 62
     2
  6
DASHDOT
 10
-71.267807
 20
453.916382
 11
-71.267807
 21
466.120697
  0
LINE
  8
LC-001-150-----0
 62
     1
  6
CONTINUOUS
 10
-66.267807
 20
462.415466
 11
-66.267807
 21
456.915466
  0
LINE
  8
LC-002-021-SLN-3
 62
     2
  6
DASHDOT
 10
-91.267807
 20
453.916382
 11
-91.267807
 21
497.544373
  0
LINE
  8
LC-002-021-SLN-3
 62
     2
  6
DASHDOT
 10
-111.713684
 20
478.915466
 11
-72.257240
 21
478.915466
  0
CIRCLE
  8
LC-001-150-----0
 62
     1
  6
CONTINUOUS
 10
-91.267807
 20
478.915466
 40
8.000000
  0
LINE
  8
LC-001-150-----0
 62
     1
  6
CONTINUOUS
 10
-19.500048
 20
456.915466
 11
15.499954
 21
456.915466
  0
ARC
  8
LC-001-150-----0
 62
     1
  6
CONTINUOUS
 10
-115.267807
 20
462.415466
 40
1.000000
 50
90.000003
 51
180.000009
  0
ARC
  8
LC-001-150-----0
 62
     1
  6
CONTINUOUS
 10
-67.267807
 20
462.415466
 40
1.000000
 50
0.000000
 51
90.000003
  0
LINE
  8
LC-001-150-----0
 62
     1
  6
CONTINUOUS
 10
-66.300858
 20
462.670410
 11
-68.870369
 21
472.415466
  0
LINE
  8
LC-001-150-----0
 62
     1
  6
CONTINUOUS
 10
-116.264000
 20
462.502594
 11
-113.548096
 21
493.545532
  0
LINE
  8
LC-003-002-----0
 62
     2
  6
DASHED
 10
-69.017807
 20
456.915466
 11
-69.017807
 21
463.415466
  0
LINE
  8
LC-003-002-----0
 62
     2
  6
DASHED
 10
-73.517807
 20
456.915466
 11
-73.517807
 21
463.415466
  0
LINE
  8
LC-002-021-SLN-3
 62
     2
  6
DASHDOT
 10
-111.267807
 20
453.916382
 11
-111.267807
 21
466.120697
  0
LINE
  8
LC-003-002-----0
 62
     2
  6
DASHED
 10
-113.517807
 20
456.915466
 11
-113.517807
 21
463.415466
  0
LINE
  8
LC-003-002-----0
 62
     2
  6
DASHED
 10
-109.017807
 20
456.915466
 11
-109.017807
 21
463.415466
  0
ARC
  8
LC-001-150-----0
 62
     1
  6
CONTINUOUS
 10
-102.756935
 20
464.415466
 40
1.000000
 50
269.999997
 51
51.608332
  0
ARC
  8
LC-001-150-----0
 62
     1
  6
CONTINUOUS
 10
-79.778679
 20
464.415466
 40
1.000000
 50
128.391669
 51
269.999997
  0
LINE
  8
LC-001-150-----0
 62
     1
  6
CONTINUOUS
 10
-79.778679
 20
463.415466
 11
-67.267807
 21
463.415466
  0
LINE
  8
LC-001-150-----0
 62
     1
  6
CONTINUOUS
 10
15.499953
 20
456.915466
 11
15.499953
 21
462.415466
  0
LINE
  8
LC-001-150-----0
 62
     1
  6
CONTINUOUS
 10
-19.500048
 20
456.915466
 11
-19.500048
 21
462.415466
  0
LINE
  8
LC-001-150-----0
 62
     1
  6
CONTINUOUS
 10
-18.500048
 20
463.415466
 11
14.499954
 21
463.415466
  0
ARC
  8
LC-001-150-----0
 62
     1
  6
CONTINUOUS
 10
-18.500048
 20
462.415466
 40
1.000000
 50
90.000003
 51
180.000009
  0
ARC
  8
LC-001-150-----0
 62
     1
  6
CONTINUOUS
 10
14.499953
 20
462.415466
 40
1.000000
 50
0.000000
 51
90.000003
  0
LINE
  8
LC-002-021-SLN-3
 62
     2
  6
DASHDOT
 10
-2.000047
 20
453.916382
 11
-2.000047
 21
496.822083
  0
LINE
  8
LC-001-150-----0
 62
     1
  6
CONTINUOUS
 10
8.999953
 20
464.415466
 11
8.999953
 21
493.458374
  0
LINE
  8
LC-001-150-----0
 62
     1
  6
CONTINUOUS
 10
-13.000047
 20
464.415466
 11
-13.000047
 21
493.458374
  0
ARC
  8
LC-001-150-----0
 62
     1
  6
CONTINUOUS
 10
-12.000047
 20
493.458374
 40
1.000000
 50
90.000003
 51
180.000009
  0
ARC
  8
LC-001-150-----0
 62
     1
  6
CONTINUOUS
 10
7.999953
 20
493.458374
 40
1.000000
 50
0.000000
 51
90.000003
  0
ARC
  8
LC-001-150-----0
 62
     1
  6
CONTINUOUS
 10
9.999953
 20
464.415466
 40
1.000000
 50
180.000009
 51
269.999997
  0
ARC
  8
LC-001-150-----0
 62
     1
  6
CONTINUOUS
 10
-14.000047
 20
464.415466
 40
1.000000
 50
269.999997
 51
0.000000
  0
LINE
  8
LC-001-150-----0
 62
     1
  6
CONTINUOUS
 10
1.999953
 20
464.415466
 11
1.999953
 21
493.458374
  0
LINE
  8
LC-001-150-----0
 62
     1
  6
CONTINUOUS
 10
-6.000047
 20
464.415466
 11
-6.000047
 21
493.458374
  0
LINE
  8
LC-001-150-----0
 62
     1
  6
CONTINUOUS
 10
-12.000047
 20
494.458374
 11
7.999952
 21
494.458374
  0
ARC
  8
LC-001-150-----0
 62
     1
  6
CONTINUOUS
 10
-7.000047
 20
464.415466
 40
1.000000
 50
269.999997
 51
0.000000
  0
ARC
  8
LC-001-150-----0
 62
     1
  6
CONTINUOUS
 10
2.999953
 20
464.415466
 40
1.000000
 50
180.000009
 51
269.999997
  0
ARC
  8
LC-001-150-----0
 62
     1
  6
CONTINUOUS
 10
-5.000047
 20
493.458374
 40
1.000000
 50
90.000003
 51
180.000009
  0
ARC
  8
LC-001-150-----0
 62
     1
  6
CONTINUOUS
 10
0.999953
 20
493.458374
 40
1.000000
 50
0.000000
 51
90.000003
  0
LINE
  8
LC-001-150-----0
 62
     1
  6
CONTINUOUS
 10
-19.500048
 20
489.018341
 11
-13.000046
 21
489.018341
  0
LINE
  8
LC-001-150-----0
 62
     1
  6
CONTINUOUS
 10
-19.500048
 20
465.915466
 11
-13.000046
 21
465.915466
  0
LINE
  8
LC-001-150-----0
 62
     1
  6
CONTINUOUS
 10
15.999953
 20
466.415466
 11
15.999953
 21
488.518341
  0
LINE
  8
LC-001-150-----0
 62
     1
  6
CONTINUOUS
 10
-20.000048
 20
466.415466
 11
-20.000048
 21
488.518341
  0
ARC
  8
LC-001-150-----0
 62
     1
  6
CONTINUOUS
 10
-19.500048
 20
466.415466
 40
0.500000
 50
180.000009
 51
269.999997
  0
ARC
  8
LC-001-150-----0
 62
     1
  6
CONTINUOUS
 10
-19.500048
 20
488.518341
 40
0.500000
 50
90.000003
 51
180.000009
  0
ARC
  8
LC-001-150-----0
 62
     1
  6
CONTINUOUS
 10
15.499953
 20
488.518341
 40
0.500000
 50
0.000000
 51
90.000003
  0
ARC
  8
LC-001-150-----0
 62
     1
  6
CONTINUOUS
 10
15.499953
 20
466.415466
 40
0.500000
 50
269.999997
 51
0.000000
  0
LINE
  8
LC-002-021-SLN-3
 62
     2
  6
DASHDOT
 10
-15.000047
 20
453.916382
 11
-15.000047
 21
466.120697
  0
LINE
  8
LC-002-021-SLN-3
 62
     2
  6
DASHDOT
 10
10.999953
 20
453.916382
 11
10.999953
 21
466.120697
  0
LINE
  8
LC-003-002-----0
 62
     2
  6
DASHED
 10
13.249953
 20
456.915466
 11
13.249953
 21
463.415466
  0
LINE
  8
LC-003-002-----0
 62
     2
  6
DASHED
 10
8.749953
 20
456.915466
 11
8.749953
 21
463.415466
  0
LINE
  8
LC-002-021-SLN-3
 62
     2
  6
DASHDOT
 10
-34.871067
 20
478.915466
 11
28.476257
 21
478.915466
  0
LINE
  8
LC-003-002-----0
 62
     2
  6
DASHED
 10
-17.250048
 20
456.915466
 11
-17.250048
 21
463.415466
  0
LINE
  8
LC-003-002-----0
 62
     2
  6
DASHED
 10
-12.750047
 20
456.915466
 11
-12.750047
 21
463.415466
  0
LINE
  8
LC-003-002-----0
 62
     2
  6
DASHED
 10
-13.000047
 20
489.018341
 11
8.999953
 21
489.018341
  0
LINE
  8
LC-001-150-----0
 62
     1
  6
CONTINUOUS
 10
8.999953
 20
489.018341
 11
15.499953
 21
489.018341
  0
LINE
  8
LC-003-002-----0
 62
     2
  6
DASHED
 10
-13.000047
 20
465.915466
 11
8.999953
 21
465.915466
  0
LINE
  8
LC-001-150-----0
 62
     1
  6
CONTINUOUS
 10
8.999953
 20
465.915466
 11
15.499953
 21
465.915466
  0
LINE
  8
LC-001-150-----0
 62
     1
  6
CONTINUOUS
 10
-32.189243
 20
486.915466
 11
-20.000050
 21
486.915466
  0
LINE
  8
LC-001-150-----0
 62
     1
  6
CONTINUOUS
 10
-31.965387
 20
470.915466
 11
-20.000048
 21
470.915466
  0
LINE
  8
LC-004-006-----0
 62
     2
  6
CONTINUOUS
 10
-31.965387
 20
470.915466
 11
-31.260548
 21
475.601715
  0
LINE
  8
LC-004-006-----0
 62
     2
  6
CONTINUOUS
 10
-31.260548
 20
475.601715
 11
-32.259201
 21
483.812134
  0
LINE
  8
LC-004-006-----0
 62
     2
  6
CONTINUOUS
 10
-32.259201
 20
483.812134
 11
-32.189243
 21
486.915466
  0
LINE
  8
LC-004-006-----0
 62
     2
  6
CONTINUOUS
 10
26.211782
 20
470.915466
 11
26.488552
 21
474.495728
  0
LINE
  8
LC-004-006-----0
 62
     2
  6
CONTINUOUS
 10
26.488552
 20
474.495728
 11
25.489899
 21
482.521820
  0
LINE
  8
LC-004-006-----0
 62
     2
  6
CONTINUOUS
 10
25.489899
 20
482.521820
 11
25.489899
 21
486.915466
  0
LINE
  8
LC-003-002-----0
 62
     2
  6
DASHED
 10
-20.000048
 20
486.915466
 11
15.999954
 21
486.915466
  0
LINE
  8
LC-003-002-----0
 62
     2
  6
DASHED
 10
-20.000048
 20
470.915466
 11
15.999954
 21
470.915466
  0
LINE
  8
LC-001-150-----0
 62
     1
  6
CONTINUOUS
 10
15.999953
 20
470.915466
 11
26.211782
 21
470.915466
  0
LINE
  8
LC-001-150-----0
 62
     1
  6
CONTINUOUS
 10
15.999953
 20
486.915466
 11
25.489899
 21
486.915466
  0
LINE
  8
LC-001-150-----0
 62
     1
  6
CONTINUOUS
 10
-116.267807
 20
403.832245
 11
-116.267807
 21
370.832245
  0
LINE
  8
LC-001-150-----0
 62
     1
  6
CONTINUOUS
 10
-115.267807
 20
369.832245
 11
-104.267807
 21
369.832245
  0
LINE
  8
LC-001-150-----0
 62
     1
  6
CONTINUOUS
 10
-66.267807
 20
403.832245
 11
-66.267807
 21
370.832245
  0
LINE
  8
LC-001-150-----0
 62
     1
  6
CONTINUOUS
 10
-115.267807
 20
404.832245
 11
-104.267807
 21
404.832245
  0
ARC
  8
LC-001-150-----0
 62
     1
  6
CONTINUOUS
 10
-115.267807
 20
403.832245
 40
1.000000
 50
90.000003
 51
180.000009
  0
ARC
  8
LC-001-150-----0
 62
     1
  6
CONTINUOUS
 10
-115.267807
 20
370.832245
 40
1.000000
 50
180.000009
 51
269.999997
  0
ARC
  8
LC-001-150-----0
 62
     1
  6
CONTINUOUS
 10
-67.267807
 20
370.832245
 40
1.000000
 50
269.999997
 51
0.000000
  0
ARC
  8
LC-001-150-----0
 62
     1
  6
CONTINUOUS
 10
-67.267807
 20
403.832245
 40
1.000000
 50
0.000000
 51
90.000003
  0
LINE
  8
LC-002-021-SLN-3
 62
     2
  6
DASHDOT
 10
-118.984421
 20
387.332245
 11
-63.186512
 21
387.332245
  0
LINE
  8
LC-002-021-SLN-3
 62
     2
  6
DASHDOT
 10
-91.267807
 20
416.044830
 11
-91.267807
 21
356.322754
  0
LINE
  8
LC-001-150-----0
 62
     1
  6
CONTINUOUS
 10
-113.595596
 20
390.332245
 11
-113.595596
 21
384.332245
  0
ARC
  8
LC-001-150-----0
 62
     1
  6
CONTINUOUS
 10
-112.595596
 20
384.332245
 40
1.000000
 50
180.000009
 51
269.999997
  0
ARC
  8
LC-001-150-----0
 62
     1
  6
CONTINUOUS
 10
-112.595596
 20
390.332245
 40
1.000000
 50
90.000003
 51
180.000009
  0
LINE
  8
LC-001-150-----0
 62
     1
  6
CONTINUOUS
 10
-108.767807
 20
397.332245
 11
-108.767807
 21
392.332245
  0
LINE
  8
LC-001-150-----0
 62
     1
  6
CONTINUOUS
 10
-73.767807
 20
397.332245
 11
-73.767807
 21
392.332245
  0
ARC
  8
LC-001-150-----0
 62
     1
  6
CONTINUOUS
 10
-107.767807
 20
397.332245
 40
1.000000
 50
90.000003
 51
180.000009
  0
ARC
  8
LC-001-150-----0
 62
     1
  6
CONTINUOUS
 10
-107.767807
 20
377.332245
 40
1.000000
 50
180.000009
 51
269.999997
  0
ARC
  8
LC-001-150-----0
 62
     1
  6
CONTINUOUS
 10
-74.767807
 20
377.332245
 40
1.000000
 50
269.999997
 51
0.000000
  0
ARC
  8
LC-001-150-----0
 62
     1
  6
CONTINUOUS
 10
-74.767807
 20
397.332245
 40
1.000000
 50
0.000000
 51
90.000003
  0
LINE
  8
LC-001-150-----0
 62
     1
  6
CONTINUOUS
 10
-108.767807
 20
382.332245
 11
-108.767807
 21
377.332245
  0
LINE
  8
LC-001-150-----0
 62
     1
  6
CONTINUOUS
 10
-73.767807
 20
382.332245
 11
-73.767807
 21
377.332245
  0
LINE
  8
LC-002-021-SLN-3
 62
     2
  6
DASHDOT
 10
-111.267807
 20
403.869232
 11
-111.267807
 21
396.837341
  0
LINE
  8
LC-002-021-SLN-3
 62
     2
  6
DASHDOT
 10
-114.638397
 20
400.332245
 11
-107.617599
 21
400.332245
  0
CIRCLE
  8
LC-001-150-----0
 62
     1
  6
CONTINUOUS
 10
-111.267807
 20
400.332245
 40
2.250000
  0
LINE
  8
LC-002-021-SLN-3
 62
     2
  6
DASHDOT
 10
-111.267807
 20
370.795227
 11
-111.267807
 21
377.827148
  0
LINE
  8
LC-002-021-SLN-3
 62
     2
  6
DASHDOT
 10
-114.638397
 20
374.332245
 11
-107.617599
 21
374.332245
  0
CIRCLE
  8
LC-001-150-----0
 62
     1
  6
CONTINUOUS
 10
-111.267807
 20
374.332245
 40
2.250000
  0
LINE
  8
LC-002-021-SLN-3
 62
     2
  6
DASHDOT
 10
-71.267807
 20
403.869232
 11
-71.267807
 21
396.837341
  0
LINE
  8
LC-002-021-SLN-3
 62
     2
  6
DASHDOT
 10
-67.897217
 20
400.332245
 11
-74.918015
 21
400.332245
  0
CIRCLE
  8
LC-001-150-----0
 62
     1
  6
CONTINUOUS
 10
-71.267807
 20
400.332245
 40
2.250000
  0
LINE
  8
LC-002-021-SLN-3
 62
     2
  6
DASHDOT
 10
-71.267807
 20
370.795227
 11
-71.267807
 21
377.827148
  0
LINE
  8
LC-002-021-SLN-3
 62
     2
  6
DASHDOT
 10
-67.897217
 20
374.332245
 11
-74.918015
 21
374.332245
  0
CIRCLE
  8
LC-001-150-----0
 62
     1
  6
CONTINUOUS
 10
-71.267807
 20
374.332245
 40
2.250000
  0
LINE
  8
LC-001-150-----0
 62
     1
  6
CONTINUOUS
 10
-104.267807
 20
404.832245
 11
-104.267807
 21
398.332245
  0
LINE
  8
LC-001-150-----0
 62
     1
  6
CONTINUOUS
 10
-78.267807
 20
404.832245
 11
-78.267807
 21
398.332245
  0
LINE
  8
LC-001-150-----0
 62
     1
  6
CONTINUOUS
 10
-103.767807
 20
405.332245
 11
-78.767807
 21
405.332245
  0
LINE
  8
LC-001-150-----0
 62
     1
  6
CONTINUOUS
 10
-103.767807
 20
369.332245
 11
-78.767807
 21
369.332245
  0
ARC
  8
LC-001-150-----0
 62
     1
  6
CONTINUOUS
 10
-103.767807
 20
404.832245
 40
0.500000
 50
90.000003
 51
180.000009
  0
ARC
  8
LC-001-150-----0
 62
     1
  6
CONTINUOUS
 10
-78.767807
 20
404.832245
 40
0.500000
 50
0.000000
 51
90.000003
  0
ARC
  8
LC-001-150-----0
 62
     1
  6
CONTINUOUS
 10
-103.767807
 20
369.832245
 40
0.500000
 50
180.000009
 51
269.999997
  0
ARC
  8
LC-001-150-----0
 62
     1
  6
CONTINUOUS
 10
-78.767807
 20
369.832245
 40
0.500000
 50
269.999997
 51
0.000000
  0
LINE
  8
LC-003-002-----0
 62
     2
  6
DASHED
 10
-104.267807
 20
398.332245
 11
-104.267807
 21
376.332245
  0
LINE
  8
LC-001-150-----0
 62
     1
  6
CONTINUOUS
 10
-104.267807
 20
376.332245
 11
-104.267807
 21
369.832245
  0
LINE
  8
LC-003-002-----0
 62
     2
  6
DASHED
 10
-78.267807
 20
398.332245
 11
-78.267807
 21
376.332245
  0
LINE
  8
LC-001-150-----0
 62
     1
  6
CONTINUOUS
 10
-78.267807
 20
376.332245
 11
-78.267807
 21
369.832245
  0
LINE
  8
LC-003-002-----0
 62
     2
  6
DASHED
 10
-104.267807
 20
404.832245
 11
-78.267807
 21
404.832245
  0
LINE
  8
LC-001-150-----0
 62
     1
  6
CONTINUOUS
 10
-78.267807
 20
404.832245
 11
-67.267807
 21
404.832245
  0
LINE
  8
LC-003-002-----0
 62
     2
  6
DASHED
 10
-104.267807
 20
369.832245
 11
-78.267807
 21
369.832245
  0
LINE
  8
LC-001-150-----0
 62
     1
  6
CONTINUOUS
 10
-78.267807
 20
369.832245
 11
-67.267807
 21
369.832245
  0
LINE
  8
LC-001-150-----0
 62
     1
  6
CONTINUOUS
 10
-83.267807
 20
414.038391
 11
-83.267807
 21
405.332245
  0
LINE
  8
LC-004-006-----0
 62
     2
  6
CONTINUOUS
 10
-99.267807
 20
358.422394
 11
-95.426491
 21
358.825073
  0
LINE
  8
LC-004-006-----0
 62
     2
  6
CONTINUOUS
 10
-95.426491
 20
358.825073
 11
-86.645866
 21
357.989410
  0
LINE
  8
LC-004-006-----0
 62
     2
  6
CONTINUOUS
 10
-86.645866
 20
357.989410
 11
-83.267807
 21
358.570770
  0
LINE
  8
LC-004-006-----0
 62
     2
  6
CONTINUOUS
 10
-99.267807
 20
414.310211
 11
-96.028458
 21
413.542511
  0
LINE
  8
LC-004-006-----0
 62
     2
  6
CONTINUOUS
 10
-96.028458
 20
413.542511
 11
-87.247833
 21
414.431396
  0
LINE
  8
LC-004-006-----0
 62
     2
  6
CONTINUOUS
 10
-87.247833
 20
414.431396
 11
-83.267807
 21
414.038391
  0
LINE
  8
LC-001-150-----0
 62
     1
  6
CONTINUOUS
 10
-99.267807
 20
414.310211
 11
-99.267807
 21
405.332245
  0
LINE
  8
LC-003-002-----0
 62
     2
  6
DASHED
 10
-99.267807
 20
405.332245
 11
-99.267807
 21
369.332245
  0
LINE
  8
LC-003-002-----0
 62
     2
  6
DASHED
 10
-83.267807
 20
405.332245
 11
-83.267807
 21
369.332245
  0
LINE
  8
LC-001-150-----0
 62
     1
  6
CONTINUOUS
 10
-83.267807
 20
369.332245
 11
-83.267807
 21
358.570770
  0
LINE
  8
LC-001-150-----0
 62
     1
  6
CONTINUOUS
 10
-99.267807
 20
369.332245
 11
-99.267807
 21
358.422394
  0
ARC
  8
LC-001-150-----0
 62
     1
  6
CONTINUOUS
 10
-91.267807
 20
478.915466
 40
20.000000
 50
16.260204
 51
51.000001
  0
LINE
  8
LC-001-150-----0
 62
     1
  6
CONTINUOUS
 10
-72.067810
 20
472.415466
 11
-68.870369
 21
472.415466
  0
LINE
  8
LC-003-002-----0
 62
     2
  6
DASHED
 10
-72.567810
 20
476.915466
 11
-78.067810
 21
476.915466
  0
LINE
  8
LC-003-002-----0
 62
     2
  6
DASHED
 10
-72.567810
 20
480.915466
 11
-78.067810
 21
480.915466
  0
LINE
  8
LC-003-002-----0
 62
     2
  6
DASHED
 10
-77.817810
 20
476.415466
 11
-72.567810
 21
476.415466
  0
LINE
  8
LC-003-002-----0
 62
     2
  6
DASHED
 10
-72.567810
 20
481.415466
 11
-77.817810
 21
481.415466
  0
LINE
  8
LC-001-150-----0
 62
     1
  6
CONTINUOUS
 10
-70.067810
 20
481.465454
 11
-70.067810
 21
476.365448
  0
LINE
  8
LC-003-002-----0
 62
     2
  6
DASHED
 10
-81.167809
 20
480.415466
 11
-81.167809
 21
477.415466
  0
LINE
  8
LC-003-002-----0
 62
     2
  6
DASHED
 10
-78.067810
 20
476.665466
 11
-77.817810
 21
476.415466
  0
LINE
  8
LC-003-002-----0
 62
     2
  6
DASHED
 10
-77.817810
 20
481.415466
 11
-78.067810
 21
481.165466
  0
LINE
  8
LC-003-002-----0
 62
     2
  6
DASHED
 10
-77.817810
 20
481.415466
 11
-77.817810
 21
476.415466
  0
LINE
  8
LC-001-150-----0
 62
     1
  6
CONTINUOUS
 10
-72.067810
 20
484.515442
 11
-72.067810
 21
472.415466
  0
LINE
  8
LC-001-150-----0
 62
     1
  6
CONTINUOUS
 10
-70.214722
 20
475.615448
 11
-72.067810
 21
475.615448
  0
LINE
  8
LC-001-150-----0
 62
     1
  6
CONTINUOUS
 10
-70.214722
 20
477.115448
 11
-72.067810
 21
477.115448
  0
LINE
  8
LC-003-002-----0
 62
     2
  6
DASHED
 10
-78.067810
 20
481.165466
 11
-78.067810
 21
476.665466
  0
ARC
  8
LC-001-150-----0
 62
     1
  6
CONTINUOUS
 10
-81.167809
 20
478.915466
 40
11.100000
 50
350.667582
 51
9.332418
  0
ARC
  8
LC-001-150-----0
 62
     1
  6
CONTINUOUS
 10
-72.067810
 20
481.465454
 40
1.999103
 50
337.965286
 51
22.034714
  0
LINE
  8
LC-003-002-----0
 62
     2
  6
DASHED
 10
-78.067810
 20
477.165466
 11
-80.917809
 21
477.165466
  0
ARC
  8
LC-001-150-----0
 62
     1
  6
CONTINUOUS
 10
-72.067810
 20
476.365448
 40
1.999103
 50
337.965286
 51
22.034714
  0
LINE
  8
LC-003-002-----0
 62
     2
  6
DASHED
 10
-72.567810
 20
481.415466
 11
-72.567810
 21
476.415466
  0
LINE
  8
LC-003-002-----0
 62
     2
  6
DASHED
 10
-72.067810
 20
476.715454
 11
-72.567810
 21
476.715454
  0
LINE
  8
LC-003-002-----0
 62
     2
  6
DASHED
 10
-72.067810
 20
481.115448
 11
-72.567810
 21
481.115448
  0
LINE
  8
LC-003-002-----0
 62
     2
  6
DASHED
 10
-78.067810
 20
480.665466
 11
-80.917809
 21
480.665466
  0
ARC
  8
LC-003-002-----0
 62
     2
  6
DASHED
 10
-80.917809
 20
477.415466
 40
0.250000
 50
180.000009
 51
269.999997
  0
ARC
  8
LC-003-002-----0
 62
     2
  6
DASHED
 10
-80.917809
 20
480.415466
 40
0.250000
 50
90.000003
 51
180.000009
  0
ARC
  8
LC-003-002-----0
 62
     2
  6
DASHED
 10
-2.000047
 20
478.915466
 40
6.500000
 50
232.020123
 51
307.979872
  0
LINE
  8
LC-003-002-----0
 62
     2
  6
DASHED
 10
-4.860047
 20
480.566681
 11
-2.000047
 21
482.217896
  0
LINE
  8
LC-003-002-----0
 62
     2
  6
DASHED
 10
-2.000047
 20
475.613007
 11
0.859953
 21
477.264221
  0
LINE
  8
LC-003-002-----0
 62
     2
  6
DASHED
 10
-4.860047
 20
477.264221
 11
-4.860047
 21
480.566681
  0
LINE
  8
LC-003-002-----0
 62
     2
  6
DASHED
 10
0.859953
 20
477.264221
 11
0.859953
 21
480.566681
  0
LINE
  8
LC-003-002-----0
 62
     2
  6
DASHED
 10
-2.000047
 20
475.613007
 11
-4.860047
 21
477.264221
  0
LINE
  8
LC-003-002-----0
 62
     2
  6
DASHED
 10
0.859953
 20
480.566681
 11
-2.000047
 21
482.217896
  0
CIRCLE
  8
LC-003-002-----0
 62
     2
  6
DASHED
 10
-2.000047
 20
478.915466
 40
2.860000
  0
LINE
  8
LC-003-002-----0
 62
     2
  6
DASHED
 10
-72.567810
 20
385.332245
 11
-78.067810
 21
385.332245
  0
LINE
  8
LC-003-002-----0
 62
     2
  6
DASHED
 10
-72.567810
 20
389.332245
 11
-78.067810
 21
389.332245
  0
LINE
  8
LC-003-002-----0
 62
     2
  6
DASHED
 10
-77.817810
 20
384.832245
 11
-72.567810
 21
384.832245
  0
LINE
  8
LC-003-002-----0
 62
     2
  6
DASHED
 10
-72.567810
 20
389.832245
 11
-77.817810
 21
389.832245
  0
LINE
  8
LC-001-150-----0
 62
     1
  6
CONTINUOUS
 10
-70.067810
 20
389.882233
 11
-70.067810
 21
384.782227
  0
ARC
  8
LC-001-150-----0
 62
     1
  6
CONTINUOUS
 10
-109.767807
 20
392.332245
 40
1.000000
 50
269.999997
 51
0.000000
  0
ARC
  8
LC-001-150-----0
 62
     1
  6
CONTINUOUS
 10
-109.767807
 20
382.332245
 40
1.000000
 50
0.000000
 51
90.000003
  0
ARC
  8
LC-001-150-----0
 62
     1
  6
CONTINUOUS
 10
-72.767807
 20
392.332245
 40
1.000000
 50
180.000009
 51
269.999997
  0
ARC
  8
LC-001-150-----0
 62
     1
  6
CONTINUOUS
 10
-72.767807
 20
382.332245
 40
1.000000
 50
90.000003
 51
180.000009
  0
ARC
  8
LC-003-002-----0
 62
     2
  6
DASHED
 10
-80.917809
 20
388.832245
 40
0.250000
 50
90.000003
 51
180.000009
  0
ARC
  8
LC-003-002-----0
 62
     2
  6
DASHED
 10
-80.917809
 20
385.832245
 40
0.250000
 50
180.000009
 51
269.999997
  0
LINE
  8
LC-003-002-----0
 62
     2
  6
DASHED
 10
-78.067810
 20
389.082245
 11
-80.917809
 21
389.082245
  0
LINE
  8
LC-003-002-----0
 62
     2
  6
DASHED
 10
-72.067810
 20
389.532227
 11
-72.567810
 21
389.532227
  0
LINE
  8
LC-003-002-----0
 62
     2
  6
DASHED
 10
-72.067810
 20
385.132233
 11
-72.567810
 21
385.132233
  0
LINE
  8
LC-003-002-----0
 62
     2
  6
DASHED
 10
-72.567810
 20
389.832245
 11
-72.567810
 21
384.832245
  0
ARC
  8
LC-001-150-----0
 62
     1
  6
CONTINUOUS
 10
-72.067810
 20
384.782227
 40
1.999103
 50
337.965286
 51
22.034714
  0
LINE
  8
LC-003-002-----0
 62
     2
  6
DASHED
 10
-78.067810
 20
385.582245
 11
-80.917809
 21
385.582245
  0
ARC
  8
LC-001-150-----0
 62
     1
  6
CONTINUOUS
 10
-72.067810
 20
389.882233
 40
1.999103
 50
337.965286
 51
22.034714
  0
ARC
  8
LC-001-150-----0
 62
     1
  6
CONTINUOUS
 10
-81.167809
 20
387.332245
 40
11.100000
 50
350.667582
 51
9.332418
  0
LINE
  8
LC-003-002-----0
 62
     2
  6
DASHED
 10
-78.067810
 20
389.582245
 11
-78.067810
 21
385.082245
  0
LINE
  8
LC-001-150-----0
 62
     1
  6
CONTINUOUS
 10
-70.214722
 20
389.132233
 11
-72.067810
 21
389.132233
  0
LINE
  8
LC-001-150-----0
 62
     1
  6
CONTINUOUS
 10
-70.214722
 20
385.532227
 11
-72.067810
 21
385.532227
  0
LINE
  8
LC-001-150-----0
 62
     1
  6
CONTINUOUS
 10
-70.214722
 20
390.632233
 11
-72.067810
 21
390.632233
  0
LINE
  8
LC-001-150-----0
 62
     1
  6
CONTINUOUS
 10
-70.214722
 20
384.032227
 11
-72.067810
 21
384.032227
  0
LINE
  8
LC-001-150-----0
 62
     1
  6
CONTINUOUS
 10
-72.067810
 20
391.332245
 11
-72.067810
 21
383.332245
  0
LINE
  8
LC-003-002-----0
 62
     2
  6
DASHED
 10
-77.817810
 20
389.832245
 11
-77.817810
 21
384.832245
  0
LINE
  8
LC-003-002-----0
 62
     2
  6
DASHED
 10
-77.817810
 20
389.832245
 11
-78.067810
 21
389.582245
  0
LINE
  8
LC-003-002-----0
 62
     2
  6
DASHED
 10
-78.067810
 20
385.082245
 11
-77.817810
 21
384.832245
  0
LINE
  8
LC-003-002-----0
 62
     2
  6
DASHED
 10
-81.167809
 20
388.832245
 11
-81.167809
 21
385.832245
  0
LINE
  8
LC-001-150-----0
 62
     1
  6
CONTINUOUS
 10
-72.067810
 20
482.215454
 11
-70.214722
 21
482.215454
  0
LINE
  8
LC-001-150-----0
 62
     1
  6
CONTINUOUS
 10
-72.067810
 20
480.715454
 11
-70.214722
 21
480.715454
  0
ENDSEC
  0
EOF
